No Use For A Name - There Will Be Revenge Chords & Tabs

 

There Will Be Revenge Chords & Tabs

No Use For A Name Chords & Tabs

Version: 1 Type: Tab 0 ratings
1 star 2 stars 3 stars 4 stars 5 stars
comments

There Will Be Revenge Tab

No use for a name - there will be revange

im really sure this is ATLEAST 90% right :P please correct if somethings wrong
and the * means that you play the chord more then once....listen to the song


::Intro::
think is like 8 times on each..
e|---------------------------------------------------|
b|---------------------------------------------------|
G|-11-----7------12-----------14----11-----9----6----|
D|-9------9------12-----9-----12----12----11----7----|  x2
A|---------------------10----------------------------|
E|---------------------------------------------------|
   *      *      *     *      *     *     *     *

::Verse::
im lazy, just typing the chords
e|-----------------------|
b|-----------------------|
G|-------------7---------|
D|-9-----5-----7----7----|   1x
A|-9-----5-----5----7----|
E|-7-----3----------5----|
   *     *     *    *
[ Tab from: http://www.guitartabs.cc/tabs/n/no_use_for_a_name/there_will_be_revenge_tab.html ]
::Second time::
 ~ = let it ring :D
e|-------------------------------------------------------------|
b|-------------------------------------------------------------|
G|-------------7---------------------------4~------------------|
D|-9-----5-----7-----4------5~---7~---4~---4~---7~----5----7---|
A|-9-----5-----5-----4------5~---7~---4~---2~---7~----5----7---|
E|-7-----3-----------2------3~---5~---2~--------5~----3----5---|
   *     *     *     *                                *    *

::Chorus::
  = just once, then change..or just dont play the  at all :P
e|-----------------------------|
b|-----------------------------|
G|-7--<6>--4--<2>--------------|
D|-7--<6>--4--<2>--5-----7-----|
A|-5--<4>--2--<0>--5-----7-----|
E|-----------------3-----5-----|
   *       *       *     *
then you play everything again and your done :D

outro
e|---------------------------------|
b|---------------------------------|
G|-7--<6>--4--<2>-------------7~~--|
D|-7--<6>--4--<2>--5-----7----7~~--|
A|-5--<4>--2--<0>--5-----7----5~~--|
E|-----------------3-----5---------|


faaan vad gryyyym jag ääääääär!!!
Comments