No Use For A Name - The Answer Is Still No Chords & Tabs

 

The Answer Is Still No Chords & Tabs

No Use For A Name Chords & Tabs

Version: 1 Type: Tab 0 ratings
1 star 2 stars 3 stars 4 stars 5 stars
comments

The Answer Is Still No Tab

THE ANSWER IS STILL NO by No Use for a Name. Album : Making Friends 
La Parka 

FUCK! I spend all my weekend trying to play this song, ok today is sunday and 
I think the tab is ok.
[ Tab from: http://www.guitartabs.cc/tabs/n/no_use_for_a_name/the_answer_is_still_no_tab.html ]
A=left guitar   B=right guitar   A&B=both
:
# intro #A !B quiet! 
E-------------------------------------------------------------------|
B--------------------------------------1---------------0------------|
G------4---------------4-------------2---------------2--------------|
D----2---------------2--------------3---------------0---------------|
A---0---------------3-----------------------------------------------|
E-------------------------------------------------------------------|
:
# main #A *=play 6X #=play 3X                                         
E-------------------------------------------------------------------|
B----*---*-------------------*---*---*---*---*---*---*---*---*--#-#-|
G---2---2----*---*---*---*--7---7--16--16--16--16--17--17--17--1719-|
D---2---2---2---2---3---3---7---7-----------------------------------|
A---0---0---3---3---3---3---5---5--14--14--14--14--15--15--15--1517-|
E-------------------1---1---5---5-----------------------------------|
# main #B *=play 6X #=play 3X
E-------------------------------------------------------------------|
B----*---*---*---*---*---*---*--#-#--*---*---*---*---*---*---*--#-#-|
G---9---9---9---9--10--10--10--1012-9---9---9---9--10--10--10--1012-|
D-------------------------------------------------------------------|
A---7---7---7---7---8---8---8---810-7---7---7---7---8---8---8---810-|
E-------------------------------------------------------------------|
:
# verse #A *=play 6X                                                  
E-------------------------------------------------------------------|
B------------*---*-----------*---*-----------------------*----------|
G----*---*--5---5----*---*-10---9----*---*---*---*---*--7----*---*--|
D---7---7---5---5---3---3-----------5---5---7---7---3---7---5---3---|
A---7---7---3---3---3---3---8---7---5---5---7---7---3---5---5---3---|
E---5---5---3---3---1---1-----------3---3---5---5---1---5---3---1---|
# verse #B *=play 6X                                                  
E-------------------------------------------------------------------|
B------------*---*-----------*---*-----------------------*-------*--|
G----*---*--5---5----*---*--7---5----*---*---*---*---*--7----*-10---|
D---7---7---5---5---3---3---7---5---5---5---7---7---3---7---5--10---|
A---7---7---3---3---3---3---5---3---5---5---7---7---3---5---5---8---|
E---5---5-----------1---1-----------3---3---5---5---1-------3-------|
:
# verse-part2 #A *=play 6X #=play 3X
E-------------------------------------------------------------------|
B----*---*-----------------------------------*---*------------------|
G---5---5----*--#----*---*-----------*---*--5---5----*---*---*---*--|
D---5---5---5---5-#-7---5----*---*--3---3---5---5---5---5---2---2---|
A---3---3---5---5-7-7---5---5---5---3---3---3---3---5---5---2---2---|
E---3---3---3---3-4-5---3---2---2---1---1---3---3---3---3---0---0---|
# verse-part2 #B *=play 6X #=play 3X
E-------------------------------------------------------------------|
B----*---*-----------------------------------*---*-----------*---*--|
G---5---5----*--#----*---*-----------*---*--5---5----*---*-13--13---|
D---5---5---5---5-#-7---5----*---*--3---3---5---5---5---5-----------|
A---3---3---5---5-7-7---5---5---5---3---3---3---3---5---5--11--11---|
E-----------3---3-4-5---3---2---2---1---1-----------3---3-----------|
:
Then play AmainAX0.5 or BmainBX0.5 (!both last half!), AverseA or BverseB and
Averse-part2A or Bverse-part2B.
:                       (Does anybody care...)
# end-verse2-part2 #A&B ()=only A plays *=play 6X #=play 3X %=pause                         
E------------------------%%%|
B----*-------------------%%%|
G---5----*---*--#----*---%%%|
D---5---5---3---3-#-5---2%%%|
A---3---5---3---3-5-5---2%%%|
E--(3)--3---1---1-2-3---0%%%|      >>>>>>>>to next page...
THE ANSWER IS STILL NO                                                    2/2  
:
# outro #A *=play 6-8X #=play 3-4X +=play 6X with pause 
E-------------------------------------------------------------------|
B----*---*---*--#-#--*---*---+---*---*--#-#-------------------------|
G--17--16--19--171612--13--17--16--19--171612--13--17-\16-----------|
D-------------------------------------------------------------------|
A--15--14--17--151410--11--15--14--17--151410--11--15-\14-----------|
E-------------------------------------------------------------------|
# outro #B *=play 6-8X #=play 3-4X +=play 6X with pause
E-------------------------------------------------------------------|
B-------------------------------------------------------------------|
G----*---*-----------*---*---+---*----------------------------------|
D---7---5----*---*--5---2---7---5----*---*--5---2---2---------------|
A---7---5---5---5---5---2---7---5---5---5---5---2---0---------------|
E---5---3---2---2---3---0---5---3---2---2---3---0---0---------------|
:
Does anybody care?
Tabbed by Jussi Heinonen 31.01.2003.

Comments