No Use For A Name - Life Size Mirror Chords & Tabs

 

Life Size Mirror Chords & Tabs

No Use For A Name Chords & Tabs

Version: 5 Type: Tab

Life Size Mirror Tab

No Use For A Name
Life Size Mirror
Tabbed By: Newton58
Tunning: Standard eBGDAE

I see the other versions and they are a little bit hard, so here is my version, ihope so 
liked. And sorry for my english.


Intro x3
e----------------------------------------|
B----------------------------------------|
G----------------------------------------|
D------8-8-7-7-5-5------8-8-7-7-5-5------|
A--5-5--------------5-5------------------|
E----------------------------------------|

e----------------------------------------|
B----------------------------------------|
G----------------------------------------|
D------7-7-5-5-3-3-2-2-3-3-5-5-3-3-------|
A--3-3-----------------------------------|
E----------------------------------------|

In the second time of intro comes de 2nd guitar
e----------------------------------------|
B----------------------------------------|
G--7--------5----------------------------|
D--7--8--3--5----------------------------|    x2
A--5--8--3--3----------------------------|
E-----6--1-------------------------------|

Verse P.M. x4
e----------------------------------------|
B----------------------------------------|
G--7--------5----------------------------|
D--7--8--3--5----------------------------|
A--5--8--3--3----------------------------|
E-----6--1-------------------------------|
[ Tab from: http://www.guitartabs.cc/tabs/n/no_use_for_a_name/life_size_mirror_tab_ver_5.html ]
Chorus x2
e----------------------------------------|
B----------------------------------------|
G--3--10--5--7---------------------------|
D--3--10--5--7--8--8--10-----------------|
A--1---8--3--5--8--8--10-----------------|
E---------------6--5---8-----------------|

Verse P.M. x4

Chorus x2

Bridge (Paused Notes)
e----------------------------------------|
B----------------------------------------|
G------------------------7---------------|
D--8------10------7------7-(x4)----------|
A--8-(x4)-10-(x4)-7-(x4)-5---------------|
E--6-------8------5----------------------|


e---------------------------------------|
B---------------------------------------|
G-----10--------------------------------|
D--8--10--7-7-7-7-7-7-7-----------------|
A--8---8--7-7-7-7-7-7-7-----------------|
E--6------5-5-5-5-5-5-5-----------------|


Chorus x2

Outro:
e----------------------------------------|
B----------------------------------------|
G------------------4~--------------------|
D--8--10--7~-5~-4~-4~--8--5--7-7-7-7-7---|
A--8--10--7~-5~-4~-2~--8--5--7-7-7-7-7---|
E--6---8--5~-3~-2~-----6--3--5-5-5-5-5---|


e----------------------------------------|
B-------2-3-2-0-2~-----------------------|
G----------------------------------------|
D--3~------------------------------------|
A--3~------------------------------------|
E--1~------------------------------------|

End

I hope enjoy this amazing song, really itís pretty easy, but a little faster.