No Use For A Name - Life Size Mirror Chords & Tabs

 

Life Size Mirror Chords & Tabs

No Use For A Name Chords & Tabs

Version: 4 Type: Tab 0 ratings
1 star 2 stars 3 stars 4 stars 5 stars
comments

Life Size Mirror Tab

No Use For A Name - Life Size Mirror (Intro)

This is my first ever tab, i thinck it is correct
but if you think its wrong please e-mail me the
full and proper version, Thank You, Enjoy


Part 1
[ Tab from: http://www.guitartabs.cc/tabs/n/no_use_for_a_name/life_size_mirror_tab_ver_4.html ]
e---------------------------------------------|
B---------------------------------------------|
G---------------------------------------------|
D-----8-8--7-7--5-5------8-8--7-7--5-5--------|
A--5-----------------5------------------------|
E---------------------------------------------|

Part2

e---------------------------------------------|
B---------------------------------------------|
G---------------------------------------------|
D-----7-7--5-5--3-3--2-2--3-3--5-5------------|
A--3--------------------------------3--5------|
E---------------------------------------------|

Freddy Furber: fatfred148@hotmail.com
Please e-mail me punk tabs
Comments