No Use For A Name - Let Me Down Chords & Tabs

 

Let Me Down Chords & Tabs

No Use For A Name Chords & Tabs

Version: 1 Type: Bass Tab 0 ratings
1 star 2 stars 3 stars 4 stars 5 stars
comments

Let Me Down Bass Tab

Artist: No Use For A Name
Song: Let Me Down
Album: Hard Rock Bottom
Tabbed By: Mike O'Mara
E-mail: volcom1218@hotmail.com

Intro: (after guitar intro)
G|---------------------------------------|
D|---------------------------------------|
A|--55555555-00000000-22220000-----------|
E|-----------------------------33333333--|

Verse:
G|---------------------------------------|
D|---------------------------------------|
A|--55555555-00000000-22222222-00000000--|
E|---------------------------------------|

G|---------------------------------------------------|
D|---------------------------------------------------|
A|--5555------22225555-1010101010101010-121212129999-|
E|-------2222----------------------------------------|

G|---------------------------------------------------------------------|
D|---------------------------------------------------------------------|
A|--22-222-244-444-455-555-51010-101010-1099-999-9---------------------|
E|------------------------------------------------1010-101010-106~~~~--|

G|-------------------------------------------------|
D|-------------------------------------------------|
A|--2222-0000----------77777777-10101010-12121212--|
E|------------33333333-----------------------------|
[ Tab from: http://www.guitartabs.cc/tabs/n/no_use_for_a_name/let_me_down_btab.html ]
Bass Solo:
G|--12~~11h12p11~~~~9/11-14~~12/11------------------------|
D|------------0~~~~~------------------1216---1114---12~~~~|
A|----------------------------------14-----12-----10~~~~~~|
E|--------------------------------------------------------|

G|--/16~~1414~~9/11-14-16\14------------------------------|
D|-------0-0~~~--------17\16----1216---1114---12~~~~-1212-|
A|----------------------------14-----12-----10~~~~~~-1010-|
E|--------------------------------------------------------|

G|----------------------------------|
D|----------------------------------|
A|----------------------------------|
E|--33333333------------------------|


After Solo:
G|------------------------------------------|
D|------------------------------------------|
A|--55555555----------22220000--------------|
E|-----------22222222----------333333p2-----|

G|------------------------------------------------|
D|------------------------------------------------|
A|--55555555----------22220000--------------------|
E|-----------22222222----------3333333333333~~~~--|

Outro:
G|------------------------------------------|
D|------------------------------------------|
A|--55555555-22222222----------00000000-----|
E|--------------------33333333--------------|

G|----------------------------------------------------|
D|-----------------------------------------7~~~~~~~~--|
A|--55555555-22222222----------/12-12\10\9\5~~~~~~~~--|
E|--------------------33333333------------------------|
Comments