No Remorse - Took My Life Away Chords & Tabs

 

Took My Life Away Chords & Tabs

No Remorse Chords & Tabs

Version: 1 Type: Chords 2 ratings
1 star 2 stars 3 stars 4 stars 5 stars
comments

Took My Life Away Chords

“Took My Life Away”
written by: Chris Sergnese & Ethan Pirson of No Remorse
SUBMITTED BY: STEVEN RICHARDSON

MAIN VERSE:

E-------------------------------------
B-------------------------------------
G-----0-------0-------0---------------
D---2---2---2---2---0---0---0---0-----
A-------------------------------------
E--0-------3-------2-------3---2------

Repeat 5x

CHORUS:
[ Tab from: http://www.guitartabs.cc/tabs/n/no_remorse/took_my_life_away_crd.html ]
E-------------------------------------
B-------------------------------------
G-------------------------------------
D--2--2---5--5----------------------2-
A--2--2---3--3---5--5---4---5---4---2-
E--0--0----------3--3---2---3---2---0-

Repeat 2x

Sorry I haven’t figured out the solo for this song yet, once I figure it out, I will post it.

LYRICS (IT WAS HARD TO HEAR THE EXACT LYRICS SO I GOT AT LEAST THE FIRST VERSE)

Verse 1:

You took my life you took my past
You took everything
You took my future and my dreams and
All my fantasies
I’m just a shadow of the person
That I was before
And since you left me girl…

Comments