No One - Chemical Chords & Tabs

 

Chemical Chords & Tabs

No One Chords & Tabs

Version: 2 Type: Tab 0 ratings
1 star 2 stars 3 stars 4 stars 5 stars
comments

Chemical Tab

Author/Artist: No One
Title: Chemical
Transcribed by: Rob K
Email: korncrypt@hotmail.com

terribleinstincts.homestead.com

Tuning: low to high - CGCFAD

Intro                       3x
|---------------------------||-------------------------|
|---------------------------||-------------------------|
|---------------------------||-------------------------|
|---------------------------||-------------------------|
|---5-5-6-5--5-6-5-5-6-5----||-5-5-6-5-5/9-10-9-9-10-9-|
|------------------------0\-||-------------------------|
                         ^not sure about this note

Main Riff
|-----------------------|
|-----------------------|
|-----------------------|
|-----------------------|
|-0h1p0-1-0-1/3-0-1-0-0-|
|-0h1p0-1-0-1/3-0-1-0-0-|
    
Fill
|-----------|
|-----------|
|-----------|
|-----------|
|--0-0-0----|
|--0-0-0----|
   pm...
[ Tab from: http://www.guitartabs.cc/tabs/n/no_one/chemical_tab_ver_2.html ]
Verse                     3x
|-------------------------||-----------------------||
|-------------------------||-----------------------||
|-------------------------||-----------------------||
|-------------------------||-----------------------||
|--5-5-6-5--5-6-5-5-6-5---||-5-5-6-5-5-------------||
|-----------------------0\||-----------4-4-4-5-4-4-||
   pm.....................   .....................

Chorus
|--------------------------------------|
|--------------------------------------|
|--------------------------------------|
|--7-7-7-6-6-6-5-5-5-------------------|
|--5-5-5-4-4-4-3-3-3-3-3-3-5-5-5-0-0-0-|
|--------------------3-3-3-5-5-5-0-0-0-|

         Harmonic Riff
|------||-------------------------------------||--------------------------
|------||-------------------------------------||--------------------------
|------||-------------------------------------||--------------------------
|--0-0-||-------h-h-h-------h-h-h-------h-h-h-||--------h-h-h-------h-h-h-
|--0-0-||0-0-0--5-5-5-h-h-h-5-5-5-h-h-h-5-5-5-||--0-0-0-5-5-5-h-h-h-5-5-5-
|--0-0-||0-0-0--------5-5-5-------5-5-5-------||--0-0-0-------5-5-5-------
      8x                                     3x 4rth time                     

-------------||
-------------|| Play Whole Harmonic Riff Twice
-------h-h-h-||
-------5-5-5-||
-h-h-h-------||
-5-5-5-------||

|----------|
|----------|
|----------|  Then to Chorus
|-0-0--0-0-|
|-0-0--0-0-|
|-0-0--0-0-|

End on Intro
Comments