No Kompromyze - Trevor Chords & Tabs

 

Trevor Chords & Tabs

No Kompromyze Chords & Tabs

Version: 2 Type: Tab 0 ratings
1 star 2 stars 3 stars 4 stars 5 stars
comments

Trevor Tab

hi this is the lead guitarest of the band no kompromyze were a little gerage band 
[ Tab from: http://www.guitartabs.cc/tabs/n/no_kompromyze/trevor_tab_ver_2.html ]
this is trevor.
main verse
e--------guitar1----------------------------------------------------------------
-------------------------------------------------------------------------
------0----0----0------------------------4x------------------------------
-----0----0----0---------------------------------------------------------
-------------------------------------------------------------------------
e---3----2----0----------------------------------------------------------
-
-
-course
----------------guitar2---------------
--------------------------------------
-----------------------------4x-------
----5----4----2-----------------------
----5----4----2-----------------------
----3----2----0-----------------------
-
-
-
--------------guitar1------------------
---------------------------------------
--------play-as-power-cords------------
---------------------------------------
---------------------------------------
-333333-55555-222222-333333------------

if you want to email the name is nokompromyze @ yahoo.com
-
-
-
guitar 2
same as before 
-
-
-main verse again
-
-
-solo is main verse with palm mute
-
-
-main verse again and then end song
Comments