No Fun At All - Master Celebrator Chords & Tabs

 

Master Celebrator Chords & Tabs

No Fun At All Chords & Tabs

Version: 1 Type: Tab 0 ratings
1 star 2 stars 3 stars 4 stars 5 stars
comments

Master Celebrator Tab

Song: Master celebrator
Band: No Fun At All
Album: Out of bounds



Intro:

e|---------------------------------------------
b|---------------------------------------------  
g|--10----------------------------------------- X2 + X2 with stops
d|--10--10--12--10-----------------------------
a|--8---10--12--10-----------------------------
e|------8---10--8------------------------------


Verses:

e|----------------------|----------------------
b|----------------------|----------------------  Mute
g|--10------------------|---10-----------------
d|--10--10--12--10------|---10--10--12---------
a|------10--12--10------|-------10--12---------
e|----------------------|----------------------

e|---------------------------------------------
b|---------------------------------------------  
g|--10-----------------------------------------  X2
d|--10---10---12--8--3-------------------------
a|--8----10---12--8--3-------------------------
e|-------8----10--6--1-------------------------


Chorus:

e|---------------------------------------------
b|---------------------------------------------  
g|-----------10--------------------------------
d|--12----8--10--------------------------------
a|--12----8--8---------------------------------
e|--10----6------------------------------------

e|---------------------------------------------
b|--------------------------------------------- 
g|---------------------------------------------  X4
d|--12--8--3--10-------------------------------
a|--12--8--3--10-------------------------------
e|--10--6--1--8--------------------------------
[ Tab from: http://www.guitartabs.cc/tabs/n/no_fun_at_all/master_celebrator_tab.html ]
e|---------------------------------------------
b|--------------------------------------------- 
g|---------------------------------------------  X4
d|--6--10--------------------------------------
a|--6--10--------------------------------------
e|--8--8---------------------------------------


Bridge:

e|---------------------------------------------
b|--------------------------------------------- 
g|---------------------------------------------  X4
d|--3---10---8---------------------------------
a|--3---10---8---------------------------------
e|--1---8----6---------------------------------
 
     Solo in bridge:

	e|----------------------|-----------------------------------
	b|----------------------|-----------------------------------
	g|----------------------|-----------------------------------  
	d|---7-5-3-5-3-7-5-3-0--|--7-5-3-5-3-7-5-3-(let it ring) ---  X2
	a|----------------------|-----------------------------------
	e|----------------------|-----------------------------------



Song Order and text:

INTRO

VERSE 1:

Bow your head and fold your hands
Master celebrator
No one gets a second chance
Master master
Raise your voice and start to speak
Master celebrator
Climb the mountain to it's peak
Master celebrator

CHORUS

But I don't know, I don't know
who knows
No one no one seems to do any better
when they cross the border
No one no one seems to do any better
when they cross the border line
Well I'm fine

VERSE 2:

Raise your head and say the word
Master celebrator
Find a way to fool the herd
Master master
Fill their heads with empty phrases
Master celebrator
Look into their hollow faces
Master celebrator

CHORUS: 

BRIDGE:

Looking back through the years
what history tells us

CHORUS:

INTRO + MUTED PART OF THE VERSES
Comments