No Excuse - Why Cant It Be Chords & Tabs

 

Why Cant It Be Chords & Tabs

No Excuse Chords & Tabs

Version: 1 Type: Bass Tab 0 ratings
1 star 2 stars 3 stars 4 stars 5 stars
comments

Why Cant It Be Bass Tab

---------------------------------------------------------------------
--0---0---3---3---2---2---5---5-*-0-0-3-3-2-2-5-5-*------------------
0---0---0---0---0---0---0---0---*-0-0-3-3-2-2-5-5-*------------------
-------------------(x2)----------------------------------------------

[ Tab from: http://www.guitartabs.cc/tabs/n/no_excuse/why_cant_it_be_btab.html ]
---------------------------------------------------------------------
--5-----4---7-*--5--4--7--*-----------------------------*------------
7----6----9---*--7--6--9--*------------------------------------------
--(3x)----------(8x)---------33333333-22222222-55555555-*------------

---------------------------------------------------------------------
--0---0---3---3---2---2---5---5-*-0-0-3-3-2-2-5-5-*------------------
0---0---0---0---0---0---0---0---*-0-0-3-3-2-2-5-5-*------------------
--------------------(x2)---------------------------------------------

---------------------------------------------------------------------
--5-----4---7-*--5--4--7--*-----------------------------*------------
7----6----9---*--7--6--9--*------------------------------------------
--(3x)----------(8x)---------33333333-22222222-55555555-*------------
Comments