No Doubt - You Can Do It Chords & Tabs

 

You Can Do It Chords & Tabs

No Doubt Chords & Tabs

Version: 2 Type: Bass Tab 0 ratings
1 star 2 stars 3 stars 4 stars 5 stars
comments

You Can Do It Bass Tab

Artist: No Doubt
Song: You Can Do It
Album: Tragic Kingdom
Tabber: NerdayBassPlayer
Tuning: Standard (EADG)

Intro
G---------------------
D---------------------
A--1-1-1-1---3-3-3-3--
E---------------------

Intro 2
G---------------
D---------------
A---------------
E--5-5-6-6-5-5-

Verse		         ending 1		 ending 2
G-----------------|---------------------|-----------------------
D-----------------|-5h7-5-5-7-7-8-8-7-7-|-----------------------
A--5-5-7-7-8-8-7--|---------------------|-----------------------
E-----------------|---------------------|--3h5-3-3-5-5-6-6-5-5--

Pre-Chorus
G-------------
D-------------
A--5-5-3-3-5--
E-------------

Chorus 1
G----------------------------------
D----------------------------------
A--5-5-7-7-8-8-7-7---8-6-----10----
E------------------6-----6-8----8--

Post-Chorus
G--------------------------
D--------------------------
A--5/--5-5-5/--5/--5-5-5/--
E--------------------------

Repeat everything until pre-solo
[ Tab from: http://www.guitartabs.cc/tabs/n/no_doubt/you_can_do_it_btab_ver_2.html ]
Pre-Solo
G-----------------------------------
D--------------------------5-7-8-7--
A--5-7-8-7---------5-7-8-7----------
E----------3-5-6-5------------------

Solo
G------|-----------------------|-17-19-19-19-17-19/-|------------------------
D------|-17-19-17-15-17-15-----|--------------------|--17-19-17-15-17-15-----
A--5/--|-------------------17/-|--------------------|--------------------17/-
E------|-----------------------|--------------------|------------------------

Bridge 1
G---------------------------
D---------------------------
A---5-------------5---------
E------5---3---0-----5---3--

Bridge 2
G-----------------------------------------|----------------------------
D-----------------------------------------|----------------------------
A---8-8-10-10-11-11-10---11-9------13-----|----------------------------
E----------------------9------9-11----11--|-13/--13-13-13/--13-13-13/--

G-----------------------------|---------------------|---------------------
D-----------------------------|---------------------|---------------------
A-----------------------------|---------------------|---------------------
E--13/--13-13-13/--13-13-13/--|-9-11-9-9-11-9-13--1-|-9-11-9-9-13-9-6-8-1-

G-------------------
D-------------------
A-------------------
E--13-9-11-13-9-11--
Comments