No Doubt - Underneath It All Chords & Tabs

 

Underneath It All Chords & Tabs

No Doubt Chords & Tabs

Version: 1 Type: Tab 0 ratings
1 star 2 stars 3 stars 4 stars 5 stars
comments

Underneath It All Tab

   
song: Underneath It All
band: No Doubt
Tabbed by: Wendell Segundo
Tunning: EADGBE

Intro:
  E    		C#m

------		------
-9-9--		-5-5--
-9-9--		-6-6--
-9-9--		-6-6--
-7-7--		-4-4--
------		------

Verse:

  E    		C#m

-7-7--		-4-4--
-9-9--		-5-5--
-9-9--		-6-6--
-9-9--		-6-6--
-7-7--		-4-4--
------		------

Prechorus:

  A		Ab

-5-5--		-4-4--
-5-5--		-4-4--
-6-6--		-5-5--
-7-7--		-6-6--
-7-7--		-6-6--
-5-5--		-4-4--

Chorus:

  E		A    		B

-7-7--		-5-5--		-7-7--
-9-9--		-5-5--		-7-7--
-9-9--		-6-6--		-8-8--
-9-9--		-7-7--		-9-9--
-7-7--		-7-7--		-9-9--
------	  	-5-5--		-7-7--

Interlude:
[ Tab from: http://www.guitartabs.cc/tabs/n/no_doubt/underneath_it_all_tab.html ]
--------------------------------------------------
-----5------------5-----------5------------5------
-------6------------6-----------6------------6----
---6-----6------6-----6-----6-----6------6-----6--
-4------------------------------------------------
--------------6-----------5------------4----------

Rap Part:

 E    		C#m

-7-7--		-4-4--
-9-9--		-5-5--
-9-9--		-6-6--
-9-9--		-6-6--
-7-7--		-4-4--
------		------

After Rap:

 E    		C#m

-7-7--		-4-4--
-9-9--		-5-5--
-9-9--		-6-6--
-9-9--		-6-6--
-7-7--		-4-4--
------		------

2nd Prechorus:

---------------------------------------------
---------------------------------------------
---------------------------------------------
---------------------------------------------
---------------------------------------------
-77777777------------------------------------
-----------55555555\--77777777\--55555555\---

Chorus:

  E		A    		B

-7-7--		-5-5--		-7-7--
-9-9--		-5-5--		-7-7--
-9-9--		-6-6--		-8-8--
-9-9--		-7-7--		-9-9--
-7-7--		-7-7--		-9-9--
------	  	-5-5--		-7-7--


I'm not so sure about this tab. If you have any comments or suggestions, 
email me at wendz09167006384@yahoo.com....... I would appreciate your 
suggestions.......=)   Filipino Tabbers Rulz!!
Comments