No Doubt - Underneath It All Chords & Tabs

 

Underneath It All Chords & Tabs

No Doubt Chords & Tabs

Version: 1 Type: Bass Tab 0 ratings
1 star 2 stars 3 stars 4 stars 5 stars
comments

Underneath It All Bass Tab

underneath it all	
no doubt
bass
tabbed by adrian young want no doubt tabs e-mail me jt4467@aol.com

iNTRO
A-----3-4-4------3-4-4---------3-4-4-------3-4-4
E-0-3-4-----0-3-4------0\1-3-4-------0-3-4-------
[ Tab from: http://www.guitartabs.cc/tabs/n/no_doubt/underneath_it_all_btab.html ]
Verse
A--------3-4-4---------3-4-4-4-4-------3-4-4---------3-4-4-3-4
E--0-3-4-------0/1-3-4-----------0-3-4-------0\1-3-4----------

Pre-Chours
A-------4/5\4--------4/5\4------4/5\4------4-
E-55-44-------55-44--------55-44------55-4---

CHOURS
A---------2-2-----0-0-2-2-2-2-----2---0-0
E-0-0-0-0-----2-2-------------2-2---2----

leading into the bridge
A-------3-44444444
E-0-3-4-----------
Comments