No Doubt - Sunday Morning Chords & Tabs

 

Sunday Morning Chords & Tabs

No Doubt Chords & Tabs

Version: 6 Type: Tab 0 ratings
1 star 2 stars 3 stars 4 stars 5 stars
comments

Sunday Morning Tab

   
i got this from skunkerboy51@netscape.net who ever that is.. 

intro:
e|-----------------------|    |------12-------------16-|
b|-----------------------|    |---12-------------12----|
g|-----------------------|    |------------------------|
D|-----------------------| 2X |------------------------|
A|---2-2----0-2-4-2-4-2--|    |------------------------|
E|-0----4-4-------------2|    |------------------------|

intro pt.2:
e|-4-4-4-4-4-4-4-4-4-4-4-4-4-4-4-4-4-4-4-4-4-4-4-4-4-4-4-4-4-4-4-4|
b|-5-5-5-5-5-5-5-5-5-5-5-5-5-5-5-5-5-5-5-5-5-5-5-5-5-5-5-5-5-5-5-5|
g|-4-4-4-4-6-6-6-6-4-4-4-4-6-6-6-6-4-4-4-4-6-6-6-6-4-4-4-4-6-6-6-6|
D|----------------------------------------------------------------| 
A|----------------------------------------------------------------|
E|----------------------------------------------------------------|

verse:
e|-X-X-4-X-X-4-X-X-4-X-X-4|
b|-X-X-5-X-X-5-X-X-5-X-X-5|
g|-X-X-4-X-X-4-X-X-6-X-X-6|
D|------------------------| 4x
A|------------------------|
E|------------------------|

(you had me on my knees):
e|-5-5-5-5--4|     |----------|
b|-5-5-5-5--5|     |----------|
g|-6-6-6-6--6|     |---------6|
D|-7-7-7-7--6| or  |-7-7-7-7-6|
A|-7-7-7-7--4|     |-7-7-7-7-4|
E|-5-5-5-5---|     |-5-5-5-5--|

part after that:
e|-----------------------|  
b|-----------------------|    
g|-----------------------|    
D|-----------------------| 2X 
A|---2-2----0-2-4-2-4-2--|   
E|-0----4-4-------------2|

pre chorus:
e|------------|
b|-2-4-2-4-2-4|
g|-2-4-2-4-2-4|
D|------------|
A|------------|
E|------------|
[ Tab from: http://www.guitartabs.cc/tabs/n/no_doubt/sunday_morning_tab_ver_6.html ]
chorus:
e|-4-4-4-4-----------2-2-2-2--5-5-5-5--4-4-4-4-----------5-5-5-5--4--2|
b|-5-5-5-5--9-9-9-9--2-2-2-2--5-5-5-5--5-5-5-5--9-9-9-9--5-5-5-5--5--3|
g|-6-6-6-6--9-9-9-9--3-3-3-3--4-4-4-4--6-6-6-6--9-9-9-9--4-4-4-4--6--4|
D|-6-6-6-6--9-9-9-9--4-4-4-4--7-7-7-7--6-6-6-6--9-9-9-9--7-7-7-7--6--4|
A|-4-4-4-4--7-7-7-7--4-4-4-4--7-7-7-7--4-4-4-4--7-7-7-7--7-7-7-7--4--2|
E|-------------------2-2-2-2--5-5-5-5--------------------5-5-5-5------|

(i thought i knew you)::
e|-----------------------|    |-----------|
b|-----2------------5----|    |-----------|
g|-------2------------6--|    |-2-4/-6-6-6|
D|---2-----2-----6------6| or |-2-4/-6-6-6|
A|-0-----------4---------|    |-0-2/-4-6-6|
E|-----------------------|    |-----------|

after that part:               the cool riff:
e|-----------------------|    |--0-0-0-0-0-0-0---0-0----|
b|-----------------------|    |--5-5-4-4-2-2-0---2-0----|
g|-----------------------|    |----------------------2-1|
D|-----------------------| 2X |-------------------------| 2X
A|---2-2----0-2-4-2-4-2--|    |-------------------------|
E|-0----4-4-------------2|    |-------------------------|

pre chorus thing before bridge:
e|--------------------------|
b|-2-4-2-4-2-4--4-5-4--5-4-5|
g|-2-4-2-4-2-4--4-6-4--6-4-6|
D|--------------------------|
A|--------------------------|
E|--------------------------|

bridge:
e|---------------------------------------4\\2/4-4-/9-9-9-/21|
b|----------------------------------------------------------|
g|-----------6----6\\4--(6)-6/9--9\\8--8/9------------------|
D|-------4/6------------------------------------------------|
A|-2/4------------------------------------------------------|
E|----------------------------------------------------------|


order::
intro
intro 2
verse
part after verse
part after that
verse
part after verse
part after that
pre chorus
chorus
part after chorus
the cool riff
verse
part after verse
part after that
pre chorus
chorus
part after chorus
pre chorus before bridge
bridge
chorus

i think the effects used are distortion, delay and chorus.. aleast thats what i use..
Comments