No Doubt - Sunday Morning Chords & Tabs

 

Sunday Morning Chords & Tabs

No Doubt Chords & Tabs

Version: 5 Type: Tab 0 ratings
1 star 2 stars 3 stars 4 stars 5 stars
comments

Sunday Morning Tab

   
Hey this is Sunday Morining, It is so simple, Enjoy.. this is pretty accurate! Great ND 
for a beginnier, rock on ND!

C#M-002120
E-022100
A-002220
F#M-cover fret 2 for 6 strings then put ur other fingers on fret 4 on string a and d.


This is the bass part for guitar

INTRO
e-----------------------------------------------------------|
b-----------------------------------------------------------|
g-----------------------------------------------------------|
d-----------------------------------------------------------|
a----2-2------0---2-4-2-4-2----------2-2-----0-2-4-2-4-2----|
e--0------4-4---------------4-----0------4-4-------------4--|


END INTRO
Then the guitar really goes:
e--------------16------16------17--------------------------------------------------------|
b-17-------------------------------------------------------------------------------------|
g-16------16-------16-----16-------------------------------------------------------------|
d----------------------------------------------------------------------------------------|
a----------------------------------------------------------------------------------------|
e----------------------------------------------------------------------------------------|

Play fast
e--4-4-4-4--4-4-4-4--4-4-4-4--4-4-4-4---|
b--5-5-5-5--5-5-5-5--5-5-5-5--5-5-5-5---|
g--4-4-4-4--6-6-6-6--4-4-4-4--6-6-6-6---| 2x
d---------------------------------------|
a---------------------------------------|
e---------------------------------------|

   Sappy pathetic little me

|--4-------4-------4------4------4---4---4---4--|
|--5-------5-------5------5------5---5---5---5--|
|--4-------4-------6------6------4---4---6---6--|
|-----------------------------------------------|
|-----------------------------------------------|
|-----------------------------------------------|
  That was the girl I used to be
|--4-------4-------4------4--------4---4---4---4--|
|--5-------5-------5------5--------5---5---5---5--|
|--4-------4-------6------6--------4---4---6---6--|
|-------------------------------------------------|
|-------------------------------------------------|
|-------------------------------------------------|

      A          C#M
You had me on my knees
THEN PLAY INTRO

  I'd trade you places any day
|--4-------4-------4------4--------4---4---4---4--|
|--5-------5-------5------5--------5---5---5---5--|
|--4-------4-------6------6--------4---4---6---6--|
|-------------------------------------------------|
|-------------------------------------------------|
|-------------------------------------------------|
I'd never thought you could be that way
|--4-------4-------4------4------------------4---4---4---4--|
|--5-------5-------5------5------------------5---5---5---5--|
|--4-------4-------6------6------------------4---4---6---6--|
|-----------------------------------------------------------|
|-----------------------------------------------------------|
|-----------------------------------------------------------|

       A          C#M
But you looked like me on Sunday

Then Play Intro

Pre Chorus:
|------------------------------------------------------|
|-2--4--2--4---2----4----------------------------------|
|-2--4--2--4---2----4----------------------------------|
|------------------------------------------------------|
|------------------------------------------------------|
|------------------------------------------------------|

CHORUS: PLAY CHORDS 4 times

C#M                  E           F#M
You came in with the breeze
       A
On Sunday morning
C#M                E                A
You sure have changed since yesterday
     C#M
Without any warning
A(let it ring, no 4 times)           C#M
I thought I knew you               woah!
A                                    E
I thought I knew you               Woah!
A                       C#M
I thought I knew you well. . . so well

PLAY INTRO

THen play:
|-----0-0-0-0-0-0-0-0-0----------------------------|
|-----5-5-4-4-2-2-0-2-0----------------------------|
|------------------------2--1----------------------|
|--------------------------------------------------| x2
|--------------------------------------------------|
|--0-----------------------------------------------|

Verse 2

You're trying my shoes on for a change
They look so good but fit so strange
Out of fashion, so I can complain

INTRO
Pre-Chorus

CHORUS:
You came in with the breeze
On Sunday morning
You sure have changed since yesterday
Without any warning
I thought I knew you
I thought I knew you
I thought I knew you well. . . so well

INTRO

Then play:
This is the bass part for guitar

INTRO
e-----------------------------------------------------------|
b-----------------------------------------------------------|
g-----------------------------------------------------------|
d-----------------------------------------------------------|
a----2-2------0---2-4-2-4-2----------2-2-----0-2-4-2-4-2----|
e--0------4-4---------------4-----0------4-4-------------4--|

[ Tab from: http://www.guitartabs.cc/tabs/n/no_doubt/sunday_morning_tab_ver_5.html ]
END INTRO
Then the guitar really goes:
e--------------16------16------17--------------------------------------------------------|
b-17-------------------------------------------------------------------------------------|
g-16------16-------16-----16-------------------------------------------------------------|
d----------------------------------------------------------------------------------------|
a----------------------------------------------------------------------------------------|
e----------------------------------------------------------------------------------------|

Play fast
e--4-4-4-4--4-4-4-4--4-4-4-4--4-4-4-4---|
b--5-5-5-5--5-5-5-5--5-5-5-5--5-5-5-5---|
g--4-4-4-4--6-6-6-6--4-4-4-4--6-6-6-6---| 2x
d---------------------------------------|
a---------------------------------------|
e---------------------------------------|

   Sappy pathetic little me

|--4-------4-------4------4------4---4---4---4--|
|--5-------5-------5------5------5---5---5---5--|
|--4-------4-------6------6------4---4---6---6--|
|-----------------------------------------------|
|-----------------------------------------------|
|-----------------------------------------------|
  That was the girl I used to be
|--4-------4-------4------4--------4---4---4---4--|
|--5-------5-------5------5--------5---5---5---5--|
|--4-------4-------6------6--------4---4---6---6--|
|-------------------------------------------------|
|-------------------------------------------------|
|-------------------------------------------------|

      A          C#M
You had me on my knees
THEN PLAY INTRO

  I'd trade you places any day
|--4-------4-------4------4--------4---4---4---4--|
|--5-------5-------5------5--------5---5---5---5--|
|--4-------4-------6------6--------4---4---6---6--|
|-------------------------------------------------|
|-------------------------------------------------|
|-------------------------------------------------|
I'd never thought you could be that way
|--4-------4-------4------4------------------4---4---4---4--|
|--5-------5-------5------5------------------5---5---5---5--|
|--4-------4-------6------6------------------4---4---6---6--|
|-----------------------------------------------------------|
|-----------------------------------------------------------|
|-----------------------------------------------------------|

       A          C#M
But you looked like me on Sunday
Then Play Intro

Pre Chorus:
|------------------------------------------------------|
|-2--4--2--4---2----4----------------------------------|
|-2--4--2--4---2----4----------------------------------|
|------------------------------------------------------|
|------------------------------------------------------|
|------------------------------------------------------|

CHORUS: PLAY CHORDS 4 times
C#M                  E           F#M
You came in with the breeze
       A
On Sunday morning
C#M                E                A
You sure have changed since yesterday
     C#M
Without any warning
A(let it ring, no 4 times)           C#M
I thought I knew you               woah!
A                                    E
I thought I knew you               Woah!
A                       C#M
I thought I knew you well. . . so well

PLAY INTRO

THen play:
|-----0-0-0-0-0-0-0-0-0----------------------------|
|-----5-5-4-4-2-2-0-2-0----------------------------|
|------------------------2--1----------------------|
|--------------------------------------------------| x2
|--------------------------------------------------|
|--0-----------------------------------------------|

You're trying my shoes on for a change
They look so good but fit so strange
Out of fashion, so I can complain

INTRO
Pre-Chorus

CHORUS:
You came in with the breeze
On Sunday morning
You sure have changed since yesterday
Without any warning
I thought I knew you
I thought I knew you
I thought I knew you well. . . so well

INTRO

Then play:
|--------------------------------|
|-2--4--2--4-2-4-4-5--4----------|
|-2--4--2--4-2-4-4-6--4----------|
|--------------------------------|
|--------------------------------|
|--------------------------------|

This part isnt worth tabbling, its easy, you can basically play any mischeif

I know who I am, but who are you?
You're not looking like you used to
You're on the other side of the mirror
So nothing's looking quite as clear
Thank you for turning on the lights
Thank you, now you're the parasite
I didn't think you had it in you
And now you're looking like I used to


Chorus 2:

C#M            E              F#M
You came in with the breeze
           A
On Sunday morning
C#M              E               F#M
You sure have changed since yesterday
          A
Without any warning
C#M        E
And you want me badly
A         C#M       B
You cannot have me

For the last 3 lines, play stuff like the intro and the line that is like this
|-----0-0-0-0-0-0-0-0-0----------------------------|
|-----5-5-4-4-2-2-0-2-0----------------------------|
|------------------------2--1----------------------|
|--------------------------------------------------|
|--------------------------------------------------|
|--0-----------------------------------------------|

I thought I knew you
But you cannot have me
I thought I knew you well . . . oh well

El final!!
Comments