No Doubt - Spiderwebs Chords & Tabs

 

Spiderwebs Chords & Tabs

No Doubt Chords & Tabs

Version: 2 Type: Tab 0 ratings
1 star 2 stars 3 stars 4 stars 5 stars
comments

Spiderwebs Tab

   
#---------------------------------YOU BEST NOTE-------------------------------#
#This file is the author's own work and represents their interpretation of the#
#song. You may only use this file for private study, scholarship, or research.#
#-----------------------------------------------------------------------------#

Spidawebs

No Doubt Boy

brian S.


Verse :			       PH
e-------------------------------------|---------------------|
B------------------------------6vvv---|---------------------|
G---------------7---------------------|---------------------|
D--------8------8-------8-------------|---------------5--8--|
A-------------------------------------|---------5--8--------|
E--6--6----6--6----6--6---6--6--------|---6--8--------------|

Pre Chorus :

Eb             F
   But now I'm stuck in the
Bb                G          
   the web you're spinning
    Eb              F    //  (grad. slide up to 21st fret)
you got me for your prey  

Chorus : 2x
[ Tab from: http://www.guitartabs.cc/tabs/n/no_doubt/spiderwebs_tab_ver_2.html ]
Bb
Sorry im not home right now
    F
I'm Walking into spiderwebs
   G                             Eb       Eb D  C  Bb
so leave a message and I'll call you back

(likely story part... same chords)

Bridge :
    Bb      F  
And its all your fault,
  G         Eb          Eb  D  C  Bb
I screen my phone calls,
   Bb     F    
No matter who calls
        G                  Eb          Eb  D  C  Bb      
I gotta scree-ee-ee-een my phone calls.

Mini Solo : (1:56) w/ reverb
e----------------------------------------------------------|
b----------------------------------------------------------|
g----------------------------------------------------------|
d--8vvvvvv--8---/10---/12---/15---/17---20-----------------|
a----------------------------------------------------------|
e--------------------------------------------18vvv---------|

e-------------------------------------|
b------8--10vvb(11)vvvv--b11r10-------|
g--10----------------------------10---|
d-------------------------------------|
a-------------------------------------|
e-------------------------------------|

2nd Bridge  

Gm    Eb(b5)
                 Eb     F    G    A    Bb
Cause your in my dreams                ahhh
Comments