No Doubt - Spiderwebs Chords & Tabs

 

Spiderwebs Chords & Tabs

No Doubt Chords & Tabs

Version: 2 Type: Bass Tab 0 ratings
1 star 2 stars 3 stars 4 stars 5 stars
comments

Spiderwebs Bass Tab

   
Song Title: Spiderwebs
Artist: No Doubt
Album: Tragic Kingdom
----------------------------------------------

Tabbed By JP Fernandez

INTRO

G|---------------------------------------------------------
D|-----0-3-0-------------------------------1-0---0-1-0-----
A|-1----------1--------0-3--------0-1-0--------3-------3-0-
E|---------------1--1------1--3---------3------------------

G|---------------------------------------------------------
D|-----0-3-0-------------------------------1-1-0-0---------
A|-1----------1--------0-3--------0-1-0------------3-3-1-0-
E|---------------1--1------1--3---------3------------------

VERSE 1

G|--------------------------------------------------------
D|------------------0/1--0---------------------0--1-3-
A|-1--0-1--0-1------------3--1--0-1--0-1-----------
E|--------------------------------------------------------

G|-----------------------------------------------------------
D|-----------------0/1--0---------------------0/1--0-----
A|-1--0-1--0-1-----------3--1--0-1--0-1----------3-0-
E|-------------------------------------------------------------

G|--------------------------------------------------0--3-------------
D|-----------------0/1--0-------------------------------0--3-------
A|-1--0-1--0-1-----------3--1--0-1--0-1--3--------------------
E|---------------------------------------------------------------------
                                     
CHORUS
                                   B
G|-------1-------0-----------------------------------------------1-----------
D|-1------1--3-----3-0---------------------------------------1------1--3-
A|-------------------------1-1-1-1-1-1-1----------------------------------
E|--------------------------------------------3-3-3-3-3-3-3--------------

G|----------------------------------------------------------------------------
-----------
D|-----------------------------------------------------------------1-1-0-0----
---------
A|-1-1-1-1-1-1-1-1------------------------------------------------------3-3-1-
0-
E|----------------------1-1-1-1-1-1-1-1-3-3-3-3-3-3-3-3----------------------

G|--------------------------------------------0-0-0-0-0-0-0-0-----------------
-----
D|----------------------3-3-3-3-3-3-3-3-----------------------1-1-0-0---------
---
A|-1-1-1-1-1-1-1-1------------------------------------------------------3-3-1-
0-
E|----------------------------------------------------------------------------
-----------

VERSE 2

G|------------------------------------------------------------
D|-----------------0/1--0--------------------0--3-0-------
A|-1--0-1--0-1----------3--1--0-1--0-1----------3-1-
E|------------------------------------------------------------

G|--------------------------------------------2/3/2---0----------
D|-----------------0/1--0--------------------------------3-------
E|-1--0-1--0-1-----------3-1--0-1-0-1-----------------3-1-
A|------------------------------------------------------------------

G|----------------------------------------------------0--3-
D|-------------0/1--0-------------------------0--3-------
A|-0-1--0-1-----------3--1--0-1--0-1--3-------------
E|----------------------------------------------------------

CHORUS                                  
                                   B
G|-------1--------0-------------------------------------------------------1---
---
D|-1-------1--3-----3-0-----------------------------------------1------1--3-
A|--------------------------1-1-1-1-1-1-1------------------------------------
E|----------------------------------------------3-3-3-3-3-3-3-----------------

G|----------------------------------------------------------------------------
---------
D|------------------------------------------------------------------1-1-0-0---
------
A|-1-1-1-1-1-1-1-1----------------------------------------------------3-3-1-0-
E|----------------------1-1-1-1-1-1-1-1-3-3-3-3-3-3-3-3------------------
[ Tab from: http://www.guitartabs.cc/tabs/n/no_doubt/spiderwebs_btab_ver_2.html ]
G|--------------------------------------------0-0-0-0-0-0-0-0-----------------
-
D|-----------------------3-3-3-3-3-3-3-3------------------1-1-0-0---------
A|-1-1-1-1-1-1-1-1---------------------------------------------------3-3-1-0-
E|----------------------------------------------------------------------------
-----

G|----------------------------------------------------- <---twice
D|--------------------------------------------1-1-0-0---------
A|-1--1--1--1----------------------------------------3-3-1-0-
E|---------------1--1--1--1--3--3--3--3------------------

VERSE

G|---------------------------------------1------0/1/0---0---------
D|---------------------------------1---1---1----------1---1-------
A|----------------------------------------------------------1-0---
E|-3-3-3-3-3-3-3-3-3-3-3-3-3-3-3-3------------------------------3-

G|----------------------------------------------------------
D|---------------------------------1----0-------------------
A|-------------------------------------------3----1-3-1-0---
E|-3-3-3-3-3-3-3-3-3-3-3-3-3-3-3-3------------------------3-

                             P
G|-------------------------------------------------------4/5--3--2-0-
D|---------------------------------1-1-1-1-1-1-1-1-1-1-1-------------
A|-------------------------------------------------------------------
E|-3-3-3-3-3-3-3-3-3-3-3-3-3-3-3-3-----------------------------------

G|----------------------------------------------------------------- <-twice
D|---------------------------------1-1-1-1-1-1-1-1-1-1-1-1-1-1-1-1-
A|-----------------------------------------------------------------
E|-3-3-3-3-3-3-3-3-3-3-3-3-3-3-3-3---------------------------------

G|-----------------------------------0-0-0-2-2-2-----------
D|-----------------------1-1-1-3-3-3-----------------------
A|------------------------------------------------0--1--3--
E|-3---3---3---3---3--3------------------------------------

G|------------------------------------------------------------------
D|--------------------------------------------------1-1-0-0---------
A|-1-1-1-1-1-1-1-1------------------------------------------3-3-1-0-
E|-----------------1-1-1-1-1-1-1-1-3-3-3-3-3-3-3-3------------------

G|---------------------------------0-0-0-0-0-0-0-0------------------
D|-----------------3-3-3-3-3-3-3-3------------------1-1-0-0---------
A|-1-1-1-1-1-1-1-1------------------------------------------3-3-1-0-
E|------------------------------------------------------------------

G|----------------------------------------------------- <---twice
D|-------------------------------------1-1-0-0---------
A|-1--1--1--1----------------------------------3-3-1-0-
E|-------------1--1--1--1--3--3--3--3------------------

G|------------------------------------------------------------- <--twice
D|-----0-3----0-3------------------------------1-1-0-0---------
A|-1-1------1----------0-3----0-3-----0-1--0-----------3-3-1-0-
E|-----------------1-1------1-----3-3--------3-----------------

G|---------------------------------0-0-0-0-0-0-0-0------------------ <-
D|-----------------3-3-3-3-3-3-3-3------------------1-1-0-0--------- three
A|-1-1-1-1-1-1-1-1------------------------------------------3-3-1-0- times
E|------------------------------------------------------------------

ENDING

G|---------------------------------------------------------
D|-----0-3-0-------------------------------1-0---0-1-0-----
A|-1----------1--------0-3--------0-1-0--------3-------3-0-
E|---------------1--1------1--3---------3------------------

G|-----------------------------------------------0---------
D|-----0-3-0-------------------------------1-1-3---3-------
A|-1----------1--------0-3--------0-1-0--------------3-1-0-
E|---------------1--1------1--3---------3------------------

G|---------------------------------------------------------
D|-----0-3-0-------------------------------1-0---0-1-0-----
A|-1----------1--------0-3--------0-1-0--------3-------3-0-
E|---------------1--1------1--3---------3------------------

G|-----------------------------------------------------------
D|-----0-3-0-------------------------------1-1-0-0-----------
A|-1----------1--------0-3--------0-1-0------------3-3-1-0-1-
E|---------------1--1------1--3---------3--------------------
Comments