No Doubt - Simple Kind Of Life Chords & Tabs

 

Simple Kind Of Life Chords & Tabs

No Doubt Chords & Tabs

Version: 1 Type: Tab 0 ratings
1 star 2 stars 3 stars 4 stars 5 stars
comments

Simple Kind Of Life Tab

song: simple kind of life
artist: no doubt
album: return of saturn

Here’s a song by the greatest band on earth!

intro
---1---0----0---0---------------------------------------------------------
---3---3----3---1--------------------------------------------------------
---2---2----0---0---------------------------------------------------------
---0---0----2---2---------------------------------------------------------
---x---x----3---3-------------------------------------------------------
---x---x----x---x--------------------------------------------------------

VERSE x4
(same as intro)
For a long time, i was in love, not only in love i was obsessed
with a friendship that no one else could touch , it didnt work out
im covered in shells

CHORUS  x2
----0---0-----1-----1----0-----------------------------------
----3---1-----1-----3----1-----------------------------------
----0---0-----2-----2----0-----------------------------------
----2---2-----3-----0----2-----------------------------------
----3---3-----3-----x----3-----------------------------------
----x---x-----1-----x----x-----------------------------------
And all i wanted was the simple things a simple kind of life
and all i needed was a simple man, so i could be a wife
[ Tab from: http://www.guitartabs.cc/tabs/n/no_doubt/simple_kind_of_life_tab.html ]
VERSE2
(same as intro)
I’m so ashamed i’ve been so mean
i dont know how i got to this point 
i always was the one with al the love
you came along, im hunting you down

CHORUS  x2
like a sick domestic abuser looking for a fight
and all i wanted was the simple things
a simple kind of life

-----1----0----0-----1---------
 ----3----2----1-----0---------
-----2----2----0-----0---------
-----0----2----2-----0---------
----X----0----3-----2---------
----X----0----X----3--------
if we met tomorrow for the very first time
would it start all over again?
would i try to make you mine?

VERSE3
(same as intro)i always thought id be a mom
sometimes i wish for a mistake, 
the longer that i wait the more selfish that i get
you seem like, you’d be a good dad


CHORUS
now all those simple things are simply to complicated for my life
how’d i get so faithful to my freedom?
 a selfish kind of life
when all i ever wanted was the simple things
a simple kind of life

OUTRO


  --0---0---0---0---1---0---1---0---1---0---0---0---0---
  --1---1---1---1---3---1---3---1---3---1---1---1---1---
  --0---0---0---0---2---0---2---0---2---0---0---0---0---
  --2---2---2---2---0---2---0---2---0---2---2---2---2---
  --3---3---3---3---X---3---X---3---X---3---3---3---3--
  -X--X---X---X---X---X---X---X---X---X---X----X-   
FADE OUT
LISTEN TO THE SONG FOR THE EXACT RHYTHM
enjoy an awsome song by the best band in the whole world
Comments