No Doubt - Running Chords & Tabs

 

Running Chords & Tabs

No Doubt Chords & Tabs

Version: 2 Type: Tab 0 ratings
1 star 2 stars 3 stars 4 stars 5 stars
comments

Running Tab

   
No Doubt - Running
This is a really fun and easy song to play.  This should be pretty accurate.
- Dorie
The basic pattern of this song is C, Em, Am, G, F.

      C
e-------0----------0----------0----------0---
B---------1----------1----------1----------1-
G-----0----------0----------0----------0-----
D--------------------------------------------
A---3----------3----------3----------3-------
E--------------------------------------------
[ Tab from: http://www.guitartabs.cc/tabs/n/no_doubt/running_tab_ver_2.html ]
      Em
e-------0----------0----------0----------0---
B---------0----------0----------0----------0-
G-----0----------0----------0----------0-----
D--------------------------------------------
A---2----------2----------2----------2-------
E--------------------------------------------

      Am
e--------------------------------------------
B-------1----------1----------1----------1---
G-----2---2------2---2------2---2------2---2-
D--------------------------------------------
A---0----------0----------0----------0-------
E--------------------------------------------

       G
e------------------------
B-------3----------3-----
G-----4---4------4---4---
D------------------------
A------------------------
E---3----------3---------

        F
e-------------------------
B-------1----------1------
G-----2---2------2---2----
D-------------------------
A-------------------------
E---1----------1----------

Comments