No Doubt - New Chords & Tabs

 

New Chords & Tabs

No Doubt Chords & Tabs

Version: 2 Type: Tab 0 ratings
1 star 2 stars 3 stars 4 stars 5 stars
comments

New Tab

   
T1: Jake, Macoman5@AOL.com, No Doubt, New, late '98 

   S1: THIS SONG IS ONE OF NO DOUBT'S BEST. 
   HEY WHATS GOIN ON SHAWNA?? 
   , 

   INTRO: 

   A E F#min E 

   e:----------1-------: On the third time of the intro replace the E with a D. 
   B:--2-------1-------: 
   G:--2---1---1-----1-: 
   D:--2---2---4-----2-: 3x 
   A:------2---4-----2-: 
   E:----------1-------: 


   VERSE: 

   e:--------------------------: 
   B:--------------------------: For as many times as needed. 
   G:--------------------------: 
   D:--------------------------: 
   A:--------------------------: 
   E:--x-x-2-x-x-4-x-x-5-x-x-7-: 


   PRE-CHORUS: 
   PART 1 | PART 2 

   e:----------------------------------------------------------------------------:
[ Tab from: http://www.guitartabs.cc/tabs/n/no_doubt/new_tab_ver_2.html ]
   B:----------------------------------------------------------------------------:

   G:--7-7-7-7--9-9-9-9--11-11-11-11--13-13-13-13-14-14-14-14--16-16-16-16--17-18:

   D:--7-7-7-7--9-9-9-9--11-11-11-11--13-13-13-13-14-14-14-14--16-16-16-16--17-18:

   A:--5-5-5-5--7-7-7-7--9-9-9-9-9-9--11-11-11-11-12-12-12-12--14-14-14-14--15-16:

   E:----------------------------------------------------------------------------:



   CHORUS: 

   A E F#min E 

   e:--------------------1---------: 
   B:--------------------1---------: 
   G:-----------9-9-9-9--1--9-9-9-9: 
   D:--7-7-7-7--9-9-9-9--4--9-9-9-9: 
   A:--7-7-7-7--7-7-7-7--4--7-7-7-7: 
   E:--5-5-5-5-----------1---------: 


   SONG ORDER: 

   INTRO-3x 
   VERSE-18x 
   PRE-CHORUS-part1-3x- part2-1x 
   VERSE:18x 
   PRE-CHORUS-part1-3x-part2-1x 
   CHORUS-4x 
   wierd interlude 
   CHORUS:rest of the song 
Comments