No Doubt - Just A Girl Chords & Tabs

 

Just A Girl Chords & Tabs

No Doubt Chords & Tabs

Version: 3 Type: Tab 0 ratings
1 star 2 stars 3 stars 4 stars 5 stars
comments

Just A Girl Tab

#----------------------------------PLEASE NOTE--------------------------------#
#This file is the author's own work and represents their interpretation of the#
#song. You may only use this file for private study, scholarship, or research.#
#-----------------------------------------------------------------------------#
#-- File created with Instab - http://www.pconline.com/~smcarey/instab.html --#
#-----------------------------------------------------------------------------#

Author/Artist: No Doubt
Title: Just A Girl
Album: Tragic Kingdom
Transcribed by: Luke Lundberg
Email: kane_72@hotmail.com

standard tuning
[ Tab from: http://www.guitartabs.cc/tabs/n/no_doubt/just_a_girl_tab_ver_3.html ]
------------------------------------------------------------------------------
------------------------------------------------------------------------------
------------------------------------------------------------------------------
---7---------------------7----------------------------------------------------
-5-5------5-----5----7\5-5-----5-----5----------------------------------------
------7-7---6-6---5--------7-7---6-6---5--------------------------------------
 intro/verse                                                                  

------------------------------------------------------------------------------
------------------------------------------------------------------------------
------------------------------------------------------------------------------
------------------------------------------------------------------------------
--9-----7-----5-----7-----9----5-----4-------10-------------------------------
--7-x6--5-x6--3-x6--5-x6--7-x6-7-x6--2-x12---8--x12---------------------------
 chorus                              p.m     p.m                              


Comments