No Doubt - Its My Life Chords & Tabs

 

Its My Life Chords & Tabs

No Doubt Chords & Tabs

Version: 3 Type: Bass Tab 0 ratings
1 star 2 stars 3 stars 4 stars 5 stars
comments

Its My Life Bass Tab

No Doubt - It's My Life
Bass Tab
Submitted By: mehedmb@aol.com

       Standard Tuning
       This tab represents an amalgam of numerous tabs found all over, none of which
were 100%, plus further corrections. Each "-" equals one eighth note, except in
prechorus measure 4 (the only lick of which I'm still not sure, but it's close).
       The prechorus takes CHOPS. Stick it out.

INTRO (see verse)

VERSE                                       VERSE OUTRO
|--------|--------|--------|--------|       |--------|--------|
|--------|--------|-------7|--7--7--|       |--------|--------|
|7-7-57--|--7-57-9|--9-79--|----9---|  X4   |8-8--8-8|-653--13|
|-------7|--------|--------|-------7|       |----8---|----13--| (OR |----1368|)
[ Tab from: http://www.guitartabs.cc/tabs/n/no_doubt/its_my_life_btab_ver_3.html ]
PRECHORUS                   1  &  2  &  3  &  4  &  
|--------|--------|--------|------------------------|--------|--------|--------|-------
|--68-6--|------3-|---4-2--|---------2/4------4--6--|--68-6--|------3-|---4-2--|-------
|-8----8-|--34-6--|-14---4-|---1--4--------6--------|-8----8-|--34-6--|-14---4-|-------
|6------4|-6-----2|-------2|------------4-----------|6------4|-6-----2|-------2|-------

CHORUS                      After Chorus 1
-|--------|--------|       -|--------|--------|--------|
-|--------|--------|       -|--------|--------|--------|
-|-4646-6-|--4-4-4-|  X4   -|--------|--------|--------|
6|-------4|-6-6---6|       2|----////|14----\\|0-0-----|

REST...
VERSE X2
VERSE OUTRO
PRECHORUS
CHORUS x4

BRIDGE            
-|--------|         |--------|          |--------|--------|
-|--------|         |--------|          |--------|-31-----|
2|--2-02--| X1 then |2-2-02--| X9 then  |2-2-02--|---3--13|
-|-------2|         |-------2|          |-------1|----13--|

PRECHORUS
CHORUS 'TIL END (no downbeat at end)
Comments