No Doubt - Hella Good Chords & Tabs

 

Hella Good Chords & Tabs

No Doubt Chords & Tabs

Version: 7 Type: Tab 0 ratings
1 star 2 stars 3 stars 4 stars 5 stars
comments

Hella Good Tab

          tabbed by NoDObtEr90


    Standard tuning


  intro
       ------------------------------------------------|
       ------------------------------------------------|
       ------------------------------------------------|
       ------------------------------------------------|  x2
       ------------------------------------------------|
       ------3-3-3-3-3-4---4-4-4-4-4-3-----------------|
             . . . . . .   . . . . . .
          p.m

       verses

       ----------------------------------------------------|
       ----------------------------------------------------|
       -----12-x-12-x-12--13---13-x-13-x-13--12------------|
       -----10-x-10-x-10--11---11-x-11-x-11--10------------|
       ----------------------------------------------------|
       ----------------------------------------------------|


     chorus


       ---------------------------------------------------|
       ---------------------------------------------------|
       ---------------------------------------------------|
       ---5-5-5-5-5-6------6---6-6-5--------5-5-5-5-5-6---|
       ---5-5-5-5-5-6------6---6-6-5--------5-5-5-5-5-6---|
       ---3-3-3-3-3-4------4---4-4-3--------3-3-3-3-3-4---|

[ Tab from: http://www.guitartabs.cc/tabs/n/no_doubt/hella_good_tab_ver_7.html ]
       ---------------------------------------------------|
       ---------------------------------------------------|
       ---------------------------------------------------|
       ---------------------------------------------------|
       ---------------------------------------------------|
       ---5/-9-9-8-8-5~-----------------------------------|

 solo   --------------------------------------------------|
        --------------------------------------------------|
        ----17-19-17p-15h-17-15--12-12-10-----------------|
        --------------------------------------------------|
        --------------------------------------------------|
        --------------------------------------------------|


        ----------------------------------------------------------------|
        ------------11----13-----8-9-11-9-8---------17-19-17p-15h-17-15-|
        ---------10----12-----------------------------------------------|
        ----------------------------------------------------------------|
        ----------------------------------------------------------------|
        ----------------------------------------------------------------|


        -----------------------------------------------|
        -----------------------------------------------|
        ---12-12-10-------10b/0------------------------|
        -----------------------------------------------|
        -----------------------------------------------|
        -----------------------------------------------|


interlude          -----------------------------------------|
                   -----------------------------------------|
                   -----------------------------------------|
                   -----------------------------------------|
                   -----------------------------------------|
                   ---3-3-3-3-3-4----444-4-4-3--------------|
                      . . . . . .    ... . . .
      p.m.
Comments