No Doubt - Ex Girlfriend Chords & Tabs

 

Ex Girlfriend Chords & Tabs

No Doubt Chords & Tabs

Version: 2 Type: Tab 0 ratings
1 star 2 stars 3 stars 4 stars 5 stars
comments

Ex Girlfriend Tab

   
name: Kim Brown

artist: No Doubt

SongTitle: Ex-Girlfriend

Tabs: This is an accurate transcription of Ex-girlfriend.Please send me 
any comments 
or questions that you have.

Riff A
-8--7--5--3--2--0---------------
10--8--7--5--4-----4--1----------
----------------5--4--2------
--------------------------
--------------------------
--------------------------

chorus- guitar 1
-----------------------------------
-----------------------------------
-----------------------------------
-2-xx--9-xx-10---4-xx-10-xx--9-----
-2-xx--9-xx-10---4-xx-10-xx--9-----
-0-xx--7-xx--8---2-xx--8-xx--7-----

chorus -guitar 2

---------------------
-5---55-5------------
---4------4---------- play this repeatedly until....
---------------------
---------------------
---------------------

"Im another ex-girlfriend on your list....."
[ Tab from: http://www.guitartabs.cc/tabs/n/no_doubt/ex_girlfriend_tab_ver_2.html ]
------------------- then riff A
-5---5---4---4-----
---4---4---4---4---
-------------------
-------------------
-------------------
verse
-7---8---5----2---3--5----7---8-- then riff A
---------------------------------
---------------------------------
--------------------------------
--------------------------------
---------------------------------

solo

----
---- play this note rapidly for 4 bars
----
----
----
-12-

---
---
-9-  followed by this note,play rapidly for 2 bars
---
---
---

"we keep repeating mistakes ......."

with effects

-s19-19-19h20p19-19-17h19----17-------------------
--------------------------19----20-19-19h20p19-17-
--------------------------------------------------
--------------------------------------------------
--------------------------------------------------
--------------------------------------------------

-19-19h20p19-19-17h19--19s12-
-----------------------------
-----------------------------
-----------------------------
-----------------------------
-----------------------------

Listen to song to get precise order of verses,choruses etc
Comments