No Doubt - Ex Girlfriend Chords & Tabs

 

Ex Girlfriend Chords & Tabs

No Doubt Chords & Tabs

Version: 1 Type: Tab 0 ratings
1 star 2 stars 3 stars 4 stars 5 stars
comments

Ex Girlfriend Tab

   
EX-GIRLFRIEND

NO DOUBT
The Return Of Saturn

Ok, here's the thing: I'm not sure about the CHORUS (I'm "thinking" that 
Tom didn't play "chords"), BRIDGES & VERSE 4. I'll try to get the single 
as soon as they sell it and I'll correct this tab if necessary (is hard to 
tab songs with mp3's only, I tried to do the best), so check back soon for
a new tab of this song. Also, if somebody could help... it'd be great.  


CHORD CHART:

    E     B     G     A     E5   
E|--x-----x-----x-----x-----x-----|
B|--x-----x-----x-----x-----x-----|
G|--1-----4-----5-----2-----x-----|
D|--2-----4-----5-----2-----14----|
A|--2-----2-----3-----0-----14----|
E|--0-----x-----x-----x-----12----|


INTRO:

*play this FILL 1 two times at the INTRO

  FILL 1
E|--8---7---5---3---2---0----------|
B|-10---8---7---5---4---1---4---1--|
G|--------------------------4---2--|
D|---------------------------------|
A|---------------------------------|
E|---------------------------------|


CHORUS

  E            B            C				  A    C    B 	 
I kinda always knew I'd end up your ex-girlfriend
  E            B            C				  A    C    B 	 
I kinda always knew I'd end up your ex-girlfriend
   
    
VERSE 1

*play this FILL 2 one time in the VERSE 1 (slow)

E|-7--8---5--2--3--2--5---7--8----8---7---5---3---2--0--------|
B|-8--10--7--4--5--4--7---8--10---10--8---7---5---4--1--4--1--|
B|------------------------------------------------------4--2--|
G|------------------------------------------------------------|
D|------------------------------------------------------------|
A|------------------------------------------------------------|
E|------------------------------------------------------------|

I kinda always knew I'd end up your ex-girlfriend
I hope I hold a special place with the rest of them
And you know it makes me sick to be on that list
But I should have thought of that before we kissed

You say you're gonna burn before you mellow
I will be the one to burn you
Why'd you have to go and pick me?
When you that we were different, completely


CHORUS

  E            B            C				  A    C    B 	 
I kinda always knew I'd end up your ex-girlfriend
  E            B            C				  A    C    B 	 
I kinda always knew I'd end up your ex-girlfriend
  E              B            C			    A    C    B 	
I hope I hold a special place with the rest of them
  E            B            C                     A    C    B  
I kinda always knew I'd end up your ex-girlfriend


BRIDGE

*play this FILL 3 at this part

  FILL 3
E|-0--0-----------8---7---5---3---2---0-----------|
B|----1--4--4-----10--8---7---5---4---1--4--1-----|
G|----------4----------------------------4--2-----|
D|------------------------------------------------|
A|------------------------------------------------|
E|------------------------------------------------|

I'm another ex-girlfriend on your list
But I should have thought of that before we kissed


VERSE 2

*play this FILL 2 one time in the VERSE 2 (slow)

E|-7--8---5--2--3--2--5---7--8----8---7---5---3---2--0--------|
B|-8--10--7--4--5--4--7---8--10---10--8---7---5---4--1--4--1--|
B|------------------------------------------------------4--2--|
G|------------------------------------------------------------|
D|------------------------------------------------------------|
A|------------------------------------------------------------|
E|------------------------------------------------------------|

Your wildness scares me
So does your freedom
You say you can't stand the restrictions
I find myself trying to change you
If you were meant to be my lover I wouldn't have to
And I feel so mean, I feel in between
'Cause I'm about to give you away


CHORUS
[ Tab from: http://www.guitartabs.cc/tabs/n/no_doubt/ex_girlfriend_tab.html ]
  E            B            C                          A    C   B       E 
I kinda always knew I'd end up your ex-girlfriend (for someone else to take)
  E		   B		    C                           A  C   B     E	
I kinda always knew I'd end up your ex-girlfriend (am I making a mistake?)
  E              B            C			     A   C   B               E 
I hope I hold a special place with the rest of them (all the time that we spent)
  E            B            C                A C    B
I kinda always knew I'd end up your ex-girl,    Friend


BRIDGE

*play this FILL 4 at this part

  FILL 4
E|-0--0---------0--0-----------|
B|----1--4--4------1---4--4----|
G|----------4-------------4----|
D|-----------------------------|
A|-----------------------------|
E|-----------------------------|

I'm another ex-girlfriend on your list
But I should have thought of that before we kissed
I'm another ex-girlfriend on your list
But I should have thought of that before we kissed

E5
   Ex-Girl...


BRIDGE 2

*play this FILL 5 at this part

  FILL 5
E|-0--0--0--0-----------------0--0---0--0-------------------|
B|----1-----1---4--4---4--4------1------1----4--4---4--4----|
G|--------------4------4------------------------4------4----|
D|----------------------------------------------------------|
A|----------------------------------------------------------|
E|----------------------------------------------------------|

I'm about to give you away for someone else to take
I'm about to give you away for someone else to take


VERSE 4

*play this FILL 6 at this part

  FILL 6
E|-0--0--0--0-----------------0--0---0--0-------------------|
B|----1-----1---4--4---4--4------1------1----4--4---4--4----|
G|--------------4------4------------------------4------4----|
D|----------------------------------------------------------|
A|----------------------------------------------------------|
E|----------------------------------------------------------|

E|-0--0--0--0------------------8---7---5---3---2---0--------|
B|----1-----1---4--4---4--4----10--8---7---5---4---1--4--1--|
G|-----------------4------4---------------------------4--2--|
D|----------------------------------------------------------|
A|----------------------------------------------------------|
E|----------------------------------------------------------|

We keep repeating mistakes for souvenirs
And we've been in between the days for years
And I know that when I see you I'm going to die
I know I'm going to want you and you know why
It's going to kill me to see you with the next girl
'Cause I'm the most gorgeously jealous kind of ex-girl


CHORUS

  E            B            C				  A    C    B 	 
I kinda always knew I'd end up your ex-girlfriend
  E            B            C				  A    C    B 	 
I kinda always knew I'd end up your ex-girlfriend
  E              B            C			    A    C    B 	
I hope I hold a special place with the rest of them 
  E            B            C                A C    B
I kinda always knew I'd end up your ex-girl,    Friend


BRIDGE

*play this FILL 7 at this part

  FILL 7
E|-0--0---------0--0-----------|
B|----1--4--4------1-----------|
G|----------4------------------|
D|-----------------------------|
A|-----------------------------|
E|-----------------------------|

I'm another ex-girlfriend on your list
But I should have thought of that before we kissed
I'm another ex-girlfriend on your list
 (**don't play at this last verse**)
But I should have thought of that before we kissed


:---------------------------------------------------:
|Transcribed by JunkieGirl                          | 
|Corrections/additional transcriptions are welcome. |
|Send them to: 'junkie@gremio.net'                  |
:---------------------------------------------------:


                                             f @ |< @ | 0 T
Comments