No Doubt - Different People Chords & Tabs

 

Different People Chords & Tabs

No Doubt Chords & Tabs

Version: 2 Type: Tab 0 ratings
1 star 2 stars 3 stars 4 stars 5 stars
comments

Different People Tab

   
INTRO: 

    C#min      E+/B#      E/B       E+/B# 
E:--4---4--4---4---4--4---4--4--4---4----- 
B:--5---5--5---5---5--5---5--5--5---5----- 
G:--6---6--6---5---5--5---4--4--4---5----- 
D:---------------------------------------- 
A:---------------------------------------- 
E:---------------------------------------- 

VERSE: 

    C#min   A               E          B# 
E:--4-4-444-5----7-5-5-5-4--4--4--4----3--3-3- 
B:--5-5-555-5----5-5-5-5-5--5--5--5-5--5--5-5- 
G:--6-------6---------------4--4--4----5--5-5- repeat with variations 
D:--6-------7--------------------------------- 
A:-------------------------------------------- 
E:-------------------------------------------- 

GUITAR PART AFTER "just with her gentle hum" RIGHT BEFORE THE CHORUS 

E:-----4-------4--------4----- 
B:---5---5---5---5----5---5--- 
G:-6-------5--------4-------5- 

2 VERSE IS THE SAME CHORDS AS 1 VERSE AND MAYBE EVEN SAME ALL TOGHETHER. 

PRE-CHORUS OCTAVE PART: 

   C#   B#   B    A#      A  G# F# E   B 
E:------------------------------------------- 
B:------------------------------------------- 
G:-6----5----4----3--------------------4-4-4- 
D:-x----x----x----x-------7--6--4--2---4-4-4- 
A:-4----3----2----1-------x--x--x--x---2 2 2- ...you got the different 
E:------------------------5--4--2--0--------- 

CHORUS IS SAME CHORDS AND STRUMMING PATTERNS AS VERSES. 

The "GROW GROW GROW" part is the intro again. 

OCTAVE PART THAT LEADS TO THE BRIDGE 

E:------------------------------------------------------ 
B:------------------------------------------------------ 
G:-6-----5----4---3------------------------------------- 
D:-x-----x----x---x---7--6--4--2--4--4--6--6-7-7--9-x-x- 
A:-4-----3----2---1---x--x--x--x--x--x--x--x-x-x--x-x-x- 
E:--------------------5--4--2--0--2--2--4--4-5-5--7-x-x- 

THE BRIDGE. You'll hear a lot of jamming by Tom. 
h= hammer on 
p= pull off 
B= bend 

    E         B              C#min       A 
E:--------------------------------------------------------- 
B:--------9-------------9---------------------------------- 
G:--------9-------------9------9---------------9---8h9p8--- 
D:-----9------9------9-------9-11----11--9-11--11--------9- 
A:--7------------11---------------------------------------- 
E:--------------------------------------------------------- 
[ Tab from: http://www.guitartabs.cc/tabs/n/no_doubt/different_people_tab_ver_2.html ]
     E          B       C#min    A                 E           B E:--------------------------------------------------------------------- 
B:-------9------7--------------9-9h12p9------------------9--------9--9- 
G:-----9-----------8---------9----------11--9h11p9----------9--9--9--9- 
D:---9-------9--------9-9h11-----------------------11--9--------------- 
A:--------------------------------------------------------------------- 
E:--------------------------------------------------------------------- 

   C#min           A           E            B#      C#min       A E:------------------------------------------------------------yeah! 
B:---------------------------------------9------4---5---5-------5-- 
G:---9---------------------------------9----9---4---6---6-------6-- 
D:-9h11---11---11--9h11p9------------9----------4---6-------------- 
A:-------------------------11--9----------------------------------- 
E:--------------------------------9-------------------------------- 

HORN INTERLUDE WITH GUITAR. 

E:--------------------------------------------------------- 
B:---------------4--5--5--5--------9-------10--9--7--9----- 
G:--9--9----9----4--6--6--6--------9-------9---9--8--9-x-x- 
D:--9--9----9----4--6--6--6---9h11----9h11-----9--9--11---- 
A:--7--7----7---------------------------------------------- 
E:--------------------------------------------------------- 

RIPPING GUITAR SOLO: 

E:-----------9------------------------------------------------------ 
B:------------------------------------------------------------------ 
G:--11b--11b----11-11-9-11-9------9--------------------------------- 
D:----------------------------9h11--11--9--------------------------- 
A:----------------------------------------11\9 7 9 7h9p7------------ 
E:-------------------------------------------------------9--4--2--0- 

E:-----------------------------------------------------0----------0- 
B:-------------------4h5p4---5--4h5p4----4-4/5-5-5-5-7---7--7-9-9--- 
G:-------------------------6-----------6---------------------------- 
D:-----------2--4/6------------------------------------------------- 
A:------2--4-------------------------------------------------------- 
E:--2/4------------------------------------------------------------- 

E:----------0-------12------------12----------------------------------- 
B:-9/-12-12---12-14-----14--12-14-----14--12h14p12-----12-------------- 
G:--------------------------------------------------13----13\11--9--11- 
D:--------------------------------------------------------------------- 
A:--------------------------------------------------------------------- 
E:--------------------------------------------------------------------- 

E:-------------------------- 
B:------12------------------ 
G:-11b-------11(11)p9-----9- 
D:--------------------9-11-- 
A:-------------------------- 
E:-------------------------- 

OUTRO - SAME CHORDS AS VERSE BUT IN POWER CHORDS 

END ON E+/B# chord 

Comments