No Doubt - Different People Chords & Tabs

 

Different People Chords & Tabs

No Doubt Chords & Tabs

Version: 1 Type: Tab 0 ratings
1 star 2 stars 3 stars 4 stars 5 stars
comments

Different People Tab

Different People    No Doubt

My Rig:
Squire Telecaster
Marshall 50 watt amp
Morley wah wah

My Favourite Bands:
Primus
Clutch
No Doubt

My Favourite guitar websites:
http://www.tabclawer.com    - good tab site
http://www.nodoubt.com   - no doubt's official site
http://www.guitarandbass.co.uk   - brilliant guitar lesson site


                                                           
E||--4----4----4--4----4----4--|--4----4----4-----4-------|
B||--5----5----5--5----5----5--|--5----5----5-----5-------|
G||--6----6----6--5----5----5--|--4----4----4-----5-------|
D||----------------------------|--------------------------|
A||----------------------------|--------------------------|
E||----------------------------|--------------------------|


                                                                    
-----4---x-x-4---x-x-5---x-x-5---|-----4---x-x-4---x-0-3---x-x-3---|
-----5-------5-------5-------5---|-----5-------5-------5-------5---|
-----6-------6-------6-------6---|-----4-------4-------5-------5---|
---------------------------------|---------------------4-----------|
---------------------------------|---------------------------------|
---------------------------------|---------------------------------|


                                                                     
-----4---x-x-4---x-x-5---x-x-5---|--x-x-4---x-x-4---x-x-3-3-x-x-3-x-|
-----5-------5-------5-------5---|------5-------5-------5-5-----5---|
-----6-------6-------6-------6---|------4-------4-------5-5-----5---|
---------------------------------|----------------------------------|
---------------------------------|----------------------------------|
---------------------------------|----------------------------------|


                                                               
--4----4---4-4-4-5------7-7-5-|--5-5-4-----4--4------3----3---|
--5----5---5-5-5-5------5-5-5-|--5-5-5-----5--5---5--5----5---|
--6--------------6------------|------4-----4--4------5----5---|
--6--------------7------------|-------------------------------|
------------------------------|-------------------------------|
------------------------------|-------------------------------|


                                                                   
--4-----4-x-4-4-5-5-5-5-5-7-7-x-|--4-4-4-4---5--4---3-3-3---3-3---|
--5-----5---5-5-5-5-5-5-5-5-5---|--5-5-5-5---5--5---5-5-5---5-5---|
--6-----6---6-6-6-6-6-6-6-6-6---|--4-4-4-4---4--4---5-5-5---5-5---|
--------------------------------|---------------------------------|
--------------------------------|---------------------------------|
--------------------------------|---------------------------------|


                                                               
--4----4---4-4-4-5------7-7-5-|--5-5-4-----4--4---3--3----3---|
--5----5---5-5-5-5------5-5-5-|--5-5-5-----5--5---5--5----5---|
--6--------------6------------|------4-----4--4---5--5----5---|
--6--------------7------------|-------------------------------|
------------------------------|-------------------------------|
------------------------------|-------------------------------|


                                                                   
--4-----4-x-4-4-5-5-5-5-5-7-7-x-|--4-4-4-4---5--4---3-3-3---3-3---|
--5-----5---5-5-5-5-5-5-5-5-5---|--5-5-5-5---5--5---5-5-5---5-5---|
--6-----6---6-6-6-6-6-6-6-6-6---|--4-4-4-4---4--4---5-5-5---5-5---|
--------------------------------|---------------------------------|
--------------------------------|---------------------------------|
--------------------------------|---------------------------------|


                                                                 
----------4---------------4-------|----------4------------------|
------5-------5-------5-------5---|------5-------5--------------|
--6---------------5---------------|--4---------------5----------|
----------------------------------|-----------------------------|
----------------------------------|-----------------------------|
----------------------------------|-----------------------------|


                                                               
--4----4---4-4-4-5------7-7-5-|--5-5-4-----4--4---3--3----3---|
--5----5---5-5-5-5------5-5-5-|--5-5-5-----5--5---5--5----5---|
--6--------------6------------|------4-----4--4---5--5----5---|
--6--------------7------------|-------------------------------|
------------------------------|-------------------------------|
------------------------------|-------------------------------|


                                                                   
--4-----4-x-4-4-5-5-5-5-5-7-7-x-|--4-4-4-4---5--4---3-3-3---3-3---|
--5-----5---5-5-5-5-5-5-5-5-5---|--5-5-5-5---5--5---5-5-5---5-5---|
--6-----6---6-6-6-6-6-6-6-6-6---|--4-4-4-4---4--4---5-5-5---5-5---|
--------------------------------|---------------------------------|
--------------------------------|---------------------------------|
--------------------------------|---------------------------------|


                                                               
--4----4---4-4-4-5------7-7-5-|--5-5-4-----4--4---3--3----3---|
--5----5---5-5-5-5------5-5-5-|--5-5-5-----5--5---5--5----5---|
--6--------------6------------|------4-----4--4---5--5----5---|
--6--------------7------------|-------------------------------|
------------------------------|-------------------------------|
------------------------------|-------------------------------|


                                                                   
--4-----4-x-4-4-5-5-5-5-5-7-7-x-|--4-4-4-4---5--4---3-3-3---3-3---|
--5-----5---5-5-5-5-5-5-5-5-5---|--5-5-5-5---5--5---5-5-5---5-5---|
--6-----6---6-6-6-6-6-6-6-6-6---|--4-4-4-4---4--4---5-5-5---5-5---|
--------------------------------|---------------------------------|
--------------------------------|---------------------------------|
--------------------------------|---------------------------------|


                                                        
--4----4----4--4----4----4--|--4----4----4-----4-------|
--5----5----5--5----5----5--|--5----5----5-----5-------|
--6----6----6--5----5----5--|--4----4----4-----5-------|
----------------------------|--------------------------|
----------------------------|--------------------------|
----------------------------|--------------------------|


                                                  
------------------------|------------------------|
------------------------|------------------------|
--6----------5----------|--4-------3-------------|
------------------------|------------------------|
--4----------3----------|--2-------1-------------|
------------------------|------------------------|


                                                       
--------------------------|---------------------------|
--------------------------|---------------------------|
--------------------------|--4---4---4----------------|
--7-----6-----4-----2-----|--4---4---4----------------|
--------------------------|--2---2---2----------------|
--5-----4-----2-----0-----|---------------------------|


                                                                    
-----4---x-x-4---x-x-5---x-x-5---|-----4---x-x-4---x-x-3---x-x-3---|
-----5-------5-------5-------5---|-----5-------5-------5-------5---|
-----6-------6-------6-------6---|-----4-------4-------5-------5---|
---------------------------------|---------------------------------|
---------------------------------|---------------------------------|
---------------------------------|---------------------------------|


                                                                      
--x-x-4---x-x-4---x-x-5---x-x-5---|--x-x-4---x-x-4---x-x-3-3-x-x-3-x-|
------5-------5-------5-------5---|------5-------5-------5-5-----5---|
------6-------6-------6-------6---|------4-------4-------5-5-----5---|
----------------------------------|----------------------------------|
----------------------------------|----------------------------------|
----------------------------------|----------------------------------|


                                                                      
--x-x-4---x-x-4---x-x-5---x-x-5---|--x-x-4---x-x-4---x-x-3---x-x-3---|
------5-------5-------5-------5---|------5-------5-------5-------5---|
------6-------6-------6-------6---|------4-------4-------5-------5---|
----------------------------------|----------------------------------|
----------------------------------|----------------------------------|
----------------------------------|----------------------------------|


                                                                      
--x-x-4---x-x-4---x-x-5---x-x-5---|--x-x-4---x-x-4---x-x-3-3-x-x-3-x-|
------5-------5-------5-------5---|------5-------5-------5-5-----5---|
------6-------6-------6-------6---|------4-------4-------5-5-----5---|
----------------------------------|----------------------------------|
----------------------------------|----------------------------------|
----------------------------------|----------------------------------|


                                                               
--4----4---4-4-4-5------7-7-5-|--5-5-4-----4--4---3--3----3---|
--5----5---5-5-5-5------5-5-5-|--5-5-5-----5--5---5--5----5---|
--6--------------6------------|------4-----4--4---5--5----5---|
--6--------------7------------|-------------------------------|
------------------------------|-------------------------------|
------------------------------|-------------------------------|


                                                                   
--4-----4-x-4-4-5-5-5-5-5-7-7-x-|--4-4-4-4---5--4---3-3-3---3-3---|
--5-----5---5-5-5-5-5-5-5-5-5---|--5-5-5-5---5--5---5-5-5---5-5---|
--6-----6---6-6-6-6-6-6-6-6-6---|--4-4-4-4---4--4---5-5-5---5-5---|
--------------------------------|---------------------------------|
--------------------------------|---------------------------------|
--------------------------------|---------------------------------|


                                                               
--4----4---4-4-4-5------7-7-5-|--5-5-4-----4--4---3--3----3---|
--5----5---5-5-5-5------5-5-5-|--5-5-5-----5--5---5--5----5---|
--6--------------6------------|------4-----4--4---5--5----5---|
--6--------------7------------|-------------------------------|
------------------------------|-------------------------------|
------------------------------|-------------------------------|


                                                                   
--4-----4-x-4-4-5-5-5-5-5-7-7-x-|--4-4-4-4---5--4---3-3-3---3-3---|
--5-----5---5-5-5-5-5-5-5-5-5---|--5-5-5-5---5--5---5-5-5---5-5---|
--6-----6---6-6-6-6-6-6-6-6-6---|--4-4-4-4---4--4---5-5-5---5-5---|
--------------------------------|---------------------------------|
--------------------------------|---------------------------------|
--------------------------------|---------------------------------|


                                                          
--4----4----4--4----4----4--|--4----4----4--4----4----4--|
--5----5----5--5----5----5--|--5----5----5--5----5----5--|
--6----6----6--5----5----5--|--4----4----4--5----5----5--|
----------------------------|----------------------------|
----------------------------|----------------------------|
----------------------------|----------------------------|


                                                  
------------------------|------------------------|
------------------------|------------------------|
--6----------5----------|--4-------3-------------|
------------------------|------------------------|
--4----------3----------|--2-------1-------------|
------------------------|------------------------|


                                                       
--------------------------|---------------------------|
--------------------------|---------------------------|
--------------------------|--4---4---4----------------|
--7-----6-----4-----2-----|--4---4---4----------------|
--------------------------|--2---2---2----------------|
--5-----4-----2-----0-----|---------------------------|


                                                                    
-----4---x-x-4---x-x-5---x-x-5---|-----4---x-x-4---x-x-3---x-x-3---|
-----5-------5-------5-------5---|-----5-------5-------5-------5---|
-----6-------6-------6-------6---|-----4-------4-------5-------5---|
---------------------------------|---------------------------------|
---------------------------------|---------------------------------|
---------------------------------|---------------------------------|


                                                                      
--x-x-4---x-x-4---x-x-5---x-x-5---|--x-x-4---x-x-4---x-x-3-3-x-x-3-x-|
------5-------5-------5-------5---|------5-------5-------5-5-----5---|
------6-------6-------6-------6---|------4-------4-------5-5-----5---|
----------------------------------|----------------------------------|
----------------------------------|----------------------------------|
----------------------------------|----------------------------------|

[ Tab from: http://www.guitartabs.cc/tabs/n/no_doubt/different_people_tab.html ]
                                                                      
--x-x-4---x-x-4---x-x-5---x-x-5---|--x-x-4---x-x-4---x-x-3---x-x-3---|
------5-------5-------5-------5---|------5-------5-------5-------5---|
------6-------6-------6-------6---|------4-------4-------5-------5---|
----------------------------------|----------------------------------|
----------------------------------|----------------------------------|
----------------------------------|----------------------------------|


                                                                      
--x-x-4---x-x-4---x-x-5---x-x-5---|--x-x-4---x-x-4---x-x-3-3-x-x-3-x-|
------5-------5-------5-------5---|------5-------5-------5-5-----5---|
------6-------6-------6-------6---|------4-------4-------5-5-----5---|
----------------------------------|----------------------------------|
----------------------------------|----------------------------------|
----------------------------------|----------------------------------|


                                                  
------------------------|------------------------|
------------------------|------------------------|
--6----------5----------|--4-------3-------------|
------------------------|------------------------|
--4----------3----------|--2-------1-------------|
------------------------|------------------------|


                                                              
--------------------------|----------------------------------|
--------------------------|----------------------------------|
--------------------------|----------------------------------|
--7-----6-----4-----2-----|--4---4---6---6---7---7---9---x-x-|
--------------------------|------------------------------x-x-|
--5-----4-----2-----0-----|--2---2---4---4---5---5---7---x-x-|


                                       
--------------------------------------|
----------9----------------9----------|
----------9----------------9---9-9----|
------9-------9--------9-------9h11---|
--7---------------11------------------|
--------------------------------------|


                                   
----------------------------------|
----------------------------------|
-------------------9----8h9h8-----|
---------11---9-11-11---------9---|
----------------------------------|
----------------------------------|


                                       
--------------------------------------|
------------9-------7-----------------|
--------9---------------8-------------|
--6/9-----------9-----------9---9h11--|
--------------------------------------|
--------------------------------------|


                                        
---------------------------------------|
-----------9---9h12h9------------------|
-----9----------------11---9h12h9------|
----------------------------------11---|
---------------------------------------|
---------------------------------------|


                                    
-----------------------------------|
------9-------------9---9----------|
----------9---9-----9---9---9-9----|
--9-------------------------9h11---|
-----------------------------------|
-----------------------------------|


                                      
-------------------------------------|
-------------------------------------|
-------------------------------------|
-----11-----11---9h11h9--------------|
------------------------11---9-------|
---------------------------------9---|


                                                          
---------------------------------|-----------------------|
------------9----------4-----5---|-------------------5---|
--------9--------------4-----6---|-------------------6---|
--6/9-----------9------4-----6---|-----------------------|
---------------------------------|-----------------------|
---------------------------------|-----------------------|


                                                               
-----------------------------|--------------------------------|
-------------------4-----5---|-------5----------9--------10---|
--9---9-----9------4-----6---|-------6----------9--------9----|
--9---9-----9------4-----6---|-------6-----9h11-----9h11------|
--7---7-----7----------------|--------------------------------|
-----------------------------|--------------------------------|


                                                        
-------------------------------|-----------------------|
--9-----9---9------7------9----|-----------------------|
--9-----9---9------8------9----|-------------------x-x-|
--9---------9------9------11---|-----------------------|
-------------------------------|-----------------------|
-------------------------------|-----------------------|


                                                              
---------------------9------|--------------------------------|
----------------------------|--------------------------------|
--11b----13----------13-----|--11r---9-11---9~-----------9---|
----------------------------|-----------------------9h11-----|
----------------------------|--------------------------------|
----------------------------|--------------------------------|


                                    
-----------------------------------|
-----------------------------------|
-----------------------------------|
--11-----9-------------------------|
-------------9---7---9---7h9h7-----|
-------------------------------9---|


                                   
----------------------------------|
----------------------------------|
----------------------------------|
--------------------------2---6---|
------------------2---4-----------|
--4---2---0---2/4-----------------|


                                       
----------------------------------0---|
--4h5h4---5-4h5h4---4-4/5-5-5-5/7---7-|
--------6---------6-------------------|
--------------------------------------|
--------------------------------------|
--------------------------------------|


                                           
--------0---------0-------12--------------|
--7/9-9---9/12-12---12/14------14---12/14-|
------------------------------------------|
------------------------------------------|
------------------------------------------|
------------------------------------------|


                                              
--12-----------------------------------------|
-------14---12h14h12------12-----------------|
---------------------13--------11---9---11---|
---------------------------------------------|
---------------------------------------------|
---------------------------------------------|


                                                                 
---------------------------------|--4----4---4-4-4-5------7-7-5-|
---------12----------------------|--5----5---5-5-5-5------5-5-5-|
--11b----13-----11r-9------9-----|--6--------------6------------|
----------------------11---------|--6--------------7------------|
---------------------------------|------------------------------|
---------------------------------|------------------------------|


                                                                 
--5-5-4-----4--4---3--3----3---|--4-----4-x-4-4-5-5-5-5-5-7-7-x-|
--5-5-5-----5--5---5--5----5---|--5-----5---5-5-5-5-5-5-5-5-5---|
------4-----4--4---5--5----5---|--6-----6---6-6-6-6-6-6-6-6-6---|
-------------------------------|--------------------------------|
-------------------------------|--------------------------------|
-------------------------------|--------------------------------|


                                                                 
--4-4-4-4---5--4---3-3-3---3-3---|--4----4---4-4-4-5------7-7-5-|
--5-5-5-5---5--5---5-5-5---5-5---|--5----5---5-5-5-5------5-5-5-|
--4-4-4-4---4--4---5-5-5---5-5---|--6--------------6------------|
---------------------------------|--6--------------7------------|
---------------------------------|------------------------------|
---------------------------------|------------------------------|


                                                                 
--5-5-4-----4--4---3--3----3---|--4-----4-x-4-4-5-5-5-5-5-7-7-x-|
--5-5-5-----5--5---5--5----5---|--5-----5---5-5-5-5-5-5-5-5-5---|
------4-----4--4---5--5----5---|--6-----6---6-6-6-6-6-6-6-6-6---|
-------------------------------|--------------------------------|
-------------------------------|--------------------------------|
-------------------------------|--------------------------------|


                                                               
--4-4-4-4---5--4---3-3-3---3-3---|--4----4----4--4----4----4--|
--5-5-5-5---5--5---5-5-5---5-5---|--5----5----5--5----5----5--|
--4-4-4-4---4--4---5-5-5---5-5---|--6----6----6--5----5----5--|
---------------------------------|----------------------------|
---------------------------------|----------------------------|
---------------------------------|----------------------------|


                                                  
--4----4----4-----4-------|----------------------|
--5----5----5-----5-------|----------------------|
--4----4----4-----5-------|----------------------|
--------------------------|----------------------|
--------------------------|----------------------|
--------------------------|----------------------|


                                                         
----------------------|-----4---x-x-4---x-x-5---x-x-5---|
----------------------|-----5-------5-------5-------5---|
----------------------|-----6-------6-------6-------6---|
----------------------|---------------------------------|
----------------------|---------------------------------|
----------------------|---------------------------------|


                                                                     
-----4---x-x-4---x-x-3---x-x-3---|--x-x-4---x-x-4---x-x-5---x-x-5---|
-----5-------5-------5-------5---|------5-------5-------5-------5---|
-----4-------4-------5-------5---|------6-------6-------6-------6---|
---------------------------------|----------------------------------|
---------------------------------|----------------------------------|
---------------------------------|----------------------------------|


                                                                      
--x-x-4---x-x-4---x-x-3-3-x-x-3-x-|----x-4---x-x-4---x-x-5---x-x-5---|
------5-------5-------5-5-----5---|------5-------5-------5-------5---|
------4-------4-------5-5-----5---|------6-------6-------6-------6---|
----------------------------------|----------------------------------|
----------------------------------|----------------------------------|
----------------------------------|----------------------------------|


                                                                 
--x-x-4---x-x-4---x-x-4---x-x-4---|--4----x-x-x-4--5----5-5--5--|
------5-------5-------5-------5---|--5----x-x-x-5--5----5-5--5--|
------4-------4-------5-------5---|--6----------6--6------------|
----------------------------------|-----------------------------|
----------------------------------|-----------------------------|
----------------------------------|-----------------------------|


                                                                    
--4--4--4-4---4-4---3-3-----3-3---|--4----4--4-4-----5-5-5---5-5-5-|
--5--5--5-5---5-5---5-5-----5-5---|--5----5--5-5-----5-5-5---5-5-5-|
--------------------5-5-----5-5---|--6----6--6-6-----6-6-6---6-6-6-|
----------------------------------|--------------------------------|
----------------------------------|--------------------------------|
----------------------------------|--------------------------------|


                                                                
----4-4-4---4-4-4---3-3-3---3-3---|----------------------------|
----5-5-5---5-5-5---5-5-5---5-5---|----------------------------|
----4-4-4---4-4-4---5-5-5---5-5---|--6----6----6---------------|
----------------------------------|--6----6----6--7----7----7--|
----------------------------------|--4----4----4--7----7----7--|
----------------------------------|---------------5----5----5--|


                                                          
----------------------------|----------------------------|
----------------------------|----------------------------|
--9----9----9--5----5----5--|--6----6----6---------------|
--9----9----9--5----5----5--|--6----6----6--7----7----7--|
--7----7----7--3----3----3--|--4----4----4--7----7----7--|
----------------------------|---------------5----5----5--|


                                                          
----------------------------|----------------------------|
----------------------------|----------------------------|
--9----9----9--5----5----5--|--6----6----6--5----5----5--|
--9----9----9--5----5----5--|--6----6----6--5----5----5--|
--7----7----7--3----3----3--|--4----4----4--3----3----3--|
----------------------------|----------------------------|


                                                          
----------------------------|----------------------------|
----------------------------|----------------------------|
--4----4----4--5----5----5--|--6----6----6--5----5----5--|
--4----4----4--5----5----5--|--6----6----6--5----5----5--|
--2----2----2--3----3----3--|--4----4----4--3----3----3--|
----------------------------|----------------------------|


                                                   
------------------4-------|----------------------||
------------------5-------|----------------------||
--4----4----4-----5-------|----------------------||
--4----4----4-------------|----------------------||
--2----2----2-------------|----------------------||
--------------------------|----------------------||


Comments