No Doubt - Artificial Sweetener Chords & Tabs

 

Artificial Sweetener Chords & Tabs

No Doubt Chords & Tabs

Version: 1 Type: Bass Tab 0 ratings
1 star 2 stars 3 stars 4 stars 5 stars
comments

Artificial Sweetener Bass Tab


Song:Artificial sweetener
Artist:No doubt (Bass player:Tony Kanal)
Album:Return of Saturn (2000)
Tabed by:Viktor Lešiæ (Split,Croatia)......vika_shock@hotmail.com

  I am 99.99% sure that this is the way Tony Kanal plays it.
You're gonna have to listen to it min 10 times(make sure you listen
 to it atleast 5 times before you start to play)to get it right,
I know I have,couse Tony Kanal plays one riff different every time.
The prolem is:It's hard to hear the bass on this song!!!
You'll see what I mean when you start playing
.....anyway this song rocks so ENJOY!!!

Verse
                       x 2  
G|--------------|---------------|----------------|
D|--------------|---------------|----------------|
A|8\33-66------4|-33-66--4-4-4-6|-33-66--4-4-4---|
E|--------66666-|-------6-6-6---|-------6-6-6-6-4|

G|-------------|---------------|---------------|---------------|
D|-------------|---------------|---------------|---------------|
A|-33-66------4|-33-66--4-6-4-6|-33-66--4-4-4-6|-33-66--4-4----|
E|-------66666-|-------6-6---6-|-------6-6-6---|-------6-6-6-64|

Bridge
                               x 3
G|------------------|--------------------------|
D|------------------|-------------15------15---|
A|-33-66/13-13-13-13|-33-66/13-13----13-13---13|
E|------------------|--------------------------|

Chorus-Kanal plays it with distorsion

G|-----------------------------------------|
D|-3-3331----------------------------------|Part1
A|-------31--4-4443/8\3--------------------|
E|-----------------------3-333331--4-444346|

G|----------------------------------------------------------------|
D|-3-3331---------------------------------------------------------|Part2	
A|-------31--4-44/8\4/8\4------------4-4443--------------1111/8888|
E|-------------------------1-111014--------43--1-111014-----------|
[ Tab from: http://www.guitartabs.cc/tabs/n/no_doubt/artificial_sweetener_btab.html ]
Verse 2
                         x 2
G|----------------|---------------|----------------|
D|----------------|---------------|----------------|
A|8\33-66------4-4|-33-66--4-4-4-6|-33-66--4-4-----|
E|--------66666-6-|-------6-6-6---|-------6-6-6--64|

G|---------------|---------------|----------------|----------------|
D|---------------|---------------|----------------|----------------|
A|-33-66------4-4|-33-66--4-6-4-6|-33-66-4-4-----4|-33-66---4-4/6\4|
E|-------66666-6-|-------6-6---6-|------6-6-6-4-6-|-------66-6-----|

Bridge 2

G|-------------------|-----------------|-----------------|-----------------|
D|-------------------|-----------------|-----------------|-----------------|
A|-3-653---1-1/8-8888|-3-653---1-1-----|-3-653---1-1/8888|-3-653---11111111|
E|-------3-----------|-------3-----1111|-------3---------|-------3---------|

Chorus 2 : play Part1 from the first chorus and than you play

G|--------------------------------------------------------------------|
D|-3-3331-------------------------------------------------------------|
A|-------31-4-44/8\4/8\4----------4-4443------------4-4443---1111/8888|
E|-----------------------1-111014-------43-1-111014-------43----------|

Interlude-also with distorsion
     x 12
G|------------|-------------------|--------------------|--------------------|
D|------------|-------------------|--------------------|--------------------|
A|-3/6-6-33333|-3333-6666-11111111|-3333---------------|-3333---------------|
E|------------|-------------------|------4444-3333-1111|------4444-3333-1111|

G|--------------------|----------------|
D|--------------------|----------------|
A|-3333------6666-1111|-3333-6666-11111|
E|------4444----------|----------------|

Last chorus-starts like this:

G|----------------------
D|-3-rest---------------
A|----------4-rest-3/8\3
E|----------------------

You'll get the rest of the song easy

	












Comments