No Cash - Skate Or Die Chords & Tabs

 

Skate Or Die Chords & Tabs

No Cash Chords & Tabs

Version: 1 Type: Tab

Skate Or Die Tab

E|--1010101010-7-8---7777777-8-7-------------|
B|------------------------------8------------|
G|-------------------------------------------| x2
D|-------------------------------------------|
A|-------------------------------------------|
E|-------------------------------------------|
[ Tab from: http://www.guitartabs.cc/tabs/n/no_cash/skate_or_die_tab.html ]
E|-------------------------------7-----------|
B|--8888-10-8---8888-10-8---8888---10-8------|
G|-------------------------------------------|
D|-------------------------------------------|
A|-------------------------------------------|
E|-------------------------------------------|

E|--1010101010-7-8--7777-8-7------------------|
B|---------------------------10-8-------------|
G|--------------------------------------------|
D|--------------------------------------------|
A|--------------------------------------------|
E|--------------------------------------------|