Nizlopi - Jcb Song Chords & Tabs

 

Jcb Song Chords & Tabs

Nizlopi Chords & Tabs

Version: 1 Type: Tab

Jcb Song Tab

The JCB Song by Nizlopi TAB

Song:		The JCB Song
Artist:		Nizlopi
Album:		Half these songs are about you
Tabbed by:	Jon Tucker
Adress:		jon@jontuckerrally.com

Cappo on Fret 2

Verse (repeat):
[ Tab from: http://www.guitartabs.cc/tabs/n/nizlopi/jcb_song_tab.html ]
E|-----0---3-0---0-----0---3-0---0-------------------|
B|-------3-----3---------3-----3---------------------|
G|---0---------------0-------------------------------|
D|---------------------------------------------------|
A|-3-------------------------------------------------|
E|-----------------3---------------------------------|

Chorus (repeat):

E|---------------------------------------------------|
B|-----1---3-1---1-----1---3-1---1-------------------|
G|---0---0-----0-----0---0-----0---------------------|
D|---------------------------------------------------|
A|---------------------------------------------------|
E|-1---------------3---------------------------------|