Nirvana - You Know Youre Right Chords & Tabs

 

You Know Youre Right Chords & Tabs

Nirvana Chords & Tabs

Version: 2 Type: Tab 0 ratings
1 star 2 stars 3 stars 4 stars 5 stars
comments

You Know Youre Right Tab

   
This is the leaked studio version of You know you're right

Drop D Tuning

INTRO
guitar 1
e---------|-----------|-----------|---------|
B---------|-----------|-----------|---------|
G---------|-----------|-----------|---------|
D---------|-----------|-----------|---------|
A---------|-----------|-----------|---------|
D-0h2-----|-2-0h2-----|-2-0h2-----|-0-2-----|
guitar 2
e-------|
B-------|
G-----6-|
D---6---|
A-6-----|
D-------|
 -harmonics-

VERSE
e-------------|-------------|
B-------------|-------------|
G-------------|-------------|
D-------------|-------------|
A-------2---2-|-------------|
D-0h2-2---2---|-0h2-2-2-2-2-|
 - - - - - - p.m - - - - - - 
[ Tab from: http://www.guitartabs.cc/tabs/n/nirvana/you_know_youre_right_tab_ver_2.html ]
never speak a word again...
e-----------|-----------|
B-----------|-----------|
G-----------|-----------|
D-5-5-5-5-5-|-7-7-7-7-7-|
A-5-5-5-5-5-|-7-7-7-7-7-|
D-5-5-5-5-5-|-7-7-7-7-7-|

PRE-CHORUS
e---------|-------|
B---------|-------|
G-----6---|---6---|
D---6---6-|-----6-|
A-6-------|-6-----|
D---------|-------|

CHORUS
e-----------|  |-----------|-----------|
B-----------|  |-----------|-----------|
G-----------|  |-----------|-----------|
D-5-5-5-5-5-|  |-7-7-7-7-7-|-9-9-9-9-9-|
A-5-5-5-5-5-|  |-7-7-7-7-7-|-9-9-9-9-9-|
D-5-5-5-5-5-|4x|-7-7-7-7-7-|-9-9-9-9-9-|
 (6x on 2nd chorus)

you know you're right...
e-------------|
B-------------|
G-8-7-8-7~/10-|
D-------------|
A-------------|
D-------------|

OUTRO
guitar1
e---------|
B---------|
G---------|
D---------|
A---------|
D-0h2-----|
guitar2
e---------|-------|
B---------|-------|
G-----6---|---6---|
D---6---6-|-----6-|
A-6-------|-6-----|
D---------|-------|let first note ring on last one
    -harmonics-
Comments