Nirvana - With The Lights Out Chords & Tabs

 

With The Lights Out Chords & Tabs

Nirvana Chords & Tabs

Version: 1 Type: Tab 0 ratings
1 star 2 stars 3 stars 4 stars 5 stars
comments

With The Lights Out Tab

   
Be sure to rate......

Heartbreaker
_____________________________________________________________________________

TUNING:

Normal tuning

RIFF 1

e----------------------------------------------------------|
b----------------------------------------------------------|
g----------------------------------------------------------|
d-------------0--1-2---------------------0--1-2------------|
a-----0--3~------------------0-0-0-0-3~--------------------|
e--------------------3b--------------------------3b--------|

e----------------------------------------------------------|
b----------------------------------------------------------|
g----------------------------------------------------------|
d--------2--3-4-------------------2--3-4-------------------|
a--2--5----------------2-2-2-2-5---------------------------|
e----------------5b-----------------------5b---------------|

VERSE

A5 - D - A


_____________________________________________________________________________

Anorexorcist
_____________________________________________________________________________

TUNING:

e----------------------------------------------------------------------------|
b----------------------------------------------------------------------------|
g----------------------------------------------------------------------------|
d----------------------------------------------------------------------------|
a----------------------------------------------------------------------------|
e----------------------------------------------------------------------------|


_____________________________________________________________________________

White Lace and Strange
_____________________________________________________________________________

TUNING:

e----------------------------------------------------------------------------|
b----------------------------------------------------------------------------|
g----------------------------------------------------------------------------|
d----------------------------------------------------------------------------|
a----------------------------------------------------------------------------|
e----------------------------------------------------------------------------|


_____________________________________________________________________________

Help Me, I'm Hungry
_____________________________________________________________________________

TUNING:

Normal tuning

VERSE/CHORUS

e----------------------------------------------------------------------------|
b----------------------------------------------------------------------------|
g--4-4-4-2-2-2---5-5-5-------------------------------------------------------|
d--4-2-4-2-2-2-2-5-5-5-5-5-5-------------------------------------------------|
a--2-2-2-0-0-0-2-3-3-3-5-5-5-------------------------------------------------|
e--------------0-------3-3-3-0-----------------------------------------------|


_____________________________________________________________________________

Mrs. Butterworth
_____________________________________________________________________________

TUNING:

e----------------------------------------------------------------------------|
b----------------------------------------------------------------------------|
g----------------------------------------------------------------------------|
d----------------------------------------------------------------------------|
a----------------------------------------------------------------------------|
e----------------------------------------------------------------------------|


_____________________________________________________________________________

If You Must
_____________________________________________________________________________

TUNING:

Standard 1/2 step down

INTRO/VERSES
B5    Bbsus4
------------|
------------|
----------8-|
----------8-|
--9-----8---|
7---7-6-----|
PM_______

clean (slight overdrive)

PRE-CHORUS
B5
------------|
------------|
------------|
9-9-9-9-9-9-|
9-9-9-9-9-9-|
7-7-7-7-7-7-|
(this part sounds weird. There is either an echo effect on it or a wicked trem pick.)

CHORUS (now with distortion)
B5   F5
----------|
----------|
4---------|
4--0-3--0-|
2--0-3--0-|
---0-1--0-|


1ST BRIDGE

Ab5	     F5
-------------------------|
-------------------------|
-------------------------| 3 times
6-6-6-6-6-6--6-6-6-6-3-3-|
6-6-6-6-6-6--6-6-6-6-3-3-|
4-4-4-4-4-4--4-4-4-4-1-1-|

Ab5
------------------------|
------------------------|
------------------------|
6-6-6-6-6-6-6-6-6-6-6-6-|
6-6-6-6-6-6-6-6-6-6-6-6-|
4-4-4-4-4-4-4-4-4-4-4-4-|

Then back to chorus for a couple of bars

2nd BRIDGE
F5     C5  B5
--------------------|
--------------------|
10------------------|
10-----10-9---------|
8------10-9---------|
-------8--7---------|


_____________________________________________________________________________

Pen Cap Chew
_____________________________________________________________________________

TUNING:

Standard 1/2 step down

INTRO

E5      G5
------------------------|
------------------------|
------------------------|
------------------------|
------------------------|
0-0-0-0-3------'--------|
PM_____


4TH REPEAT OF INTRO

E5      G5
------------------------|
------------------------|
------------------------|
------------------------|
--------4--gb5----------|
0-0-0-0-----------------|
PM_____

6TH REPEAT OF INTRO

E5      G5
------------------------|
------------------------|
------------------------|
------------------------|
--------5-----\4--------|
0-0-0-0-----------------|
PM_____


VERSE *(like intro but now completely palm-muted)

E5      G5
------------------------|
------------------------|
------------------------|
------------------------|
------------------------|
0-0-0-0-3------'--------|
PM_______

PRE-CHORUS
E5      G5
------------------------|
------------------------|
------------------------|
------------------------|
--------5---------------|
0-0-0-0-3---------------|
PM_____

CHORUS
B5    A5    F#5   A5      E5    G5      D5     F5
------------------------------------------------------|
------------------------------------------------------|
4--4--2--2--------2--2----------------7-7-7-7-10-10-0-|
4--4--2--2--4--4--2--2---2--2--5--5---7-7-7-7-10-10-0-|
2--2--0--0--4--4--0--0---2--2--5--5---5-5-5-5-8--8--0-|
------------2--2---------0--0--3--3-------------------|

POST-CHORUS
B5          D5     F5
---------------------------|
---------------------------|
4----4-----7-7-7-7-10-10-0-|
4----4-----7-7-7-7-10-10-0-|
2----2-----5-5-5-5-8--8--0-|
---------------------------|


_____________________________________________________________________________

Downer
_____________________________________________________________________________

TUNING:

Regular tuning

INTRO
e----------------------------------------------------------------------------|
b----------------------------------------------------------------------------|
g----------------------------------------------------------------------------|
d---------------5--5--5---------------5--5--5--------------------------------|
a---------------3--3--3---------------3--3--3--------------------------------|
e--0-0-0-0-0--------------0-0-0-0-0------------------------------------------|

play that 2 times, after verse play
e----------------------------------------------------------------------------|
b----------------------------------------------------------------------------|
g----------------------------------------------------------------------------|
d---------------5--5--5---------------5--5--5--------------------------------|
a---------------3--3--3---------------3--3--3--------------------------------|
e--0-0-0-0-0--------------0-0-0-0-0------------------------------------------|

e----------------------------------------------------------------------------|
b----------------------------------------------------------------------------|
g----------------------------------------------------------------------------|
d---------------5--5--5---------------5--5--5--------------------------------|
a---------------3--3--3---------------3--3--3--------------------------------|
e--0-0-0-0-0--------------0-0-0-0-0------------------------------------------|

e----------------------------------------------------------------------------|
b----------------------------------------------------------------------------|
g----------------------------------------------------------------------------|
d----------------------------------------------------------------------------|
a--7-x-8-8-8-8-7-x-9-9-9-9--7-x-8-8-8-8-7-x-9-9-9-9--------------------------|
e--5-x-6-6-6-6-5-x-7-7-7-7--5-x-6-6-6-6-5-x-7-7-7-7--------------------------|

play that 2 times, then
e----------------------------------------------------------------------------|
b----------------------------------------------------------------------------|
g----------------------------------------------------------------------------|
d---------------5--5--5---------------5--5--5--------------------------------|
a---------------3--3--3---------------3--3--3--------------------------------|
e--0-0-0-0-0--------------0-0-0-0-0------------------------------------------|

play that 2 times, then
e----------------------------------------------------------------------------|
b----------------------------------------------------------------------------|
g-----------------------------------9--9--9--9-9-9--10-10-10-10-10-10--------|
d--7--7--7--7-7-7--8--8--8--8-8-8---9--9--9--9-9-9--10-10-10-10-10-10--------|
a--7--7--7--7-7-7--8--8--8--8-8-8---7--7--7--7-7-7---8--8--8--8--8--8--------|
e--5--5--5--5-5-5--6--6--6--6-6-6--------------------------------------------|

e----------------------------------------------------------------------------|
b----------------------------------------------------------------------------|
g-----------------------------------9--9--9--9-9-9--10-10-10-10-10-10--------|
d--7--7--7--7-7-7--8--8--8--8-8-8---9--9--9--9-9-9--10-10-10-10-10-10--------|
a--7--7--7--7-7-7--8--8--8--8-8-8---7--7--7--7-7-7---8--8--8--8--8--8--------|
e--5--5--5--5-5-5--6--6--6--6-6-6--------------------------------------------|

OUTRO
e----------------------------------------------------------------------------|
b----------------------------------------------------------------------------|
g----------------------------------------------------------------------------|
d--------------5-5----------------5-5--------------5-5--------------5-5------|
a--PM.......---3-3----PM.......---3-3---PM.......--3-3---PM.......--3-3------|
e--0-0-0-0-0----------0-0-0-0-0---------0-0-0-0-0--------0-0-0-0-0-----------|

e----------------------------------------------------------------------------|
b----------------------------------------------------------------------------|
g----------------------------------------------------------------------------|
d----------------------------------------------------------------------------|
a----------------------------------------------------------------------------|
e--0-------------------------------------------------------------------------|


_____________________________________________________________________________

Floyd The Barber
_____________________________________________________________________________

TUNING:

Tune down 1/2 a step

INTRO/VERSE
e----------------------------------------------------------------------------|
b----------------------------------------------------------------------------|
g--------PM...-----------PM...----------PM...--------------------------------|
d--3--3--2-2-2-----3--3--2-2-2----3--3--2-2-2----3--3--2-2-2-----------------|
a--3--3--2-2-2-----3--3--2-2-2----3--3--2-2-2----3--3--2-2-2-----------------|
e--1--1--0-0-0-----1--1--0-0-0----1--1--0-0-0----1--1--0-0-0-----------------|

e----------------------------------------------------------------------------|
b----------------------------------------------------------------------------|
g--------PM...-----------PM...----------PM...--------------------------------|
d--3--3--2-2-2-----3--3--2-2-2----3--3--2-2-2----3--3--2-2-2-----------------|
a--3--3--2-2-2-----3--3--2-2-2----3--3--2-2-2----3--3--2-2-2-----------------|
e--1--1--0-0-0-----1--1--0-0-0----1--1--0-0-0----1--1--0-0-0-----------------|

CHORUS
e----------------------------------------------------------------------------|
b----------------------------------------------------------------------------|
g--6--6--------5--5-------------6--6--------5--5-----------------------------|
d--6--6--7--7--5--5--6--6-------6--6--7--7--5--5--6--6-----------------------|
a--4--4--7--7--3--3--6--6-------4--4--7--7--3--3--6--6-----------------------|
e--------5--5--------4--4-------------5--5--------4--4-----------------------|

e----------------------------------------------------------------------------|
b----------------------------------------------------------------------------|
g--6--6--------5--5-------------6--6--------5--5-----------------------------|
d--6--6--7--7--5--5--6--6-------6--6--7--7--5--5--6--6-----------------------|
a--4--4--7--7--3--3--6--6-------4--4--7--7--3--3--6--6-----------------------|
e--------5--5--------4--4-------------5--5--------4--4-----------------------|

SOLO
e----------------------------------------------------------------------------|
b----------------------------------------------------------------------------|
g----------------------------------------------------------------------------|
d----------------------------------------------------------------------------|
a---------------------0--1--3~~--3--1--0--1--3-------------------------------|
e--1~~--1--0--1--3-----------------------------------------------------------|

play that 3 times, then
e----------------------------------------------------------------------------|
b----------------------------------------------------------------------------|
g----------------------------------------------------------------------------|
d----------------------------------------------------------------------------|
a-------------------------3/5--5/6--6/7--7-----------------------------------|
e--1~~--1-0-1--3--3--0-------------------------------------------------------|


_____________________________________________________________________________

Raunchola
_____________________________________________________________________________

TUNING:

e----------------------------------------------------------------------------|
b----------------------------------------------------------------------------|
g----------------------------------------------------------------------------|
d----------------------------------------------------------------------------|
a----------------------------------------------------------------------------|
e----------------------------------------------------------------------------|

_____________________________________________________________________________

Beans
_____________________________________________________________________________

Tuning:Standard

e----------|
b----------|
g----------|
d----------|
a--7-7-----|
e------7-7-|

_____________________________________________________________________________

Don't Want It All
_____________________________________________________________________________

TUNING:

Standard

VERSE

e----------------------------------------------------------------------------|
b----------------------------------------------------------------------------|
g----------------------------------------------------------------------------|
d----------------------------------------------------------------------------|
a----------------------------------------------------------------------------|
e---0-/-11-9-11-0------------------------------------------------------------|

CHORUS

e----------------------------------------------------------------------------|
b----------------------------------------------------------------------------|
g----------------------------------------------------------------------------|
d----------------------------------------------------------------------------|
a----9-9-9-6-4-----9-9-9-6-4----9-9-9-6-4----9----9---9----------------------|
e--------------4-------------4------------4----10---9---4--------------------|

_____________________________________________________________________________

Clean Up Before She Comes
_____________________________________________________________________________


TUNING:

Standard 1/2 step down

VERSE

e----------------------------------------------------------------------------|
b----------------------------------------------------------------------------|
g----------------------------------------------------------------------------|
d----------------------------------------------------------------------------|
a----------------------------------------------------------------------------|
e---0-/-11-9-11-0------------------------------------------------------------|

CHORUS

e----------------------------------------------------------------------------|
b----------------------------------------------------------------------------|
g----------------------------------------------------------------------------|
d----------------------------------------------------------------------------|
a----9-9-9-6-4-----9-9-9-6-4----9-9-9-6-4----9----9---9----------------------|
e--------------4-------------4------------4----10---9---4--------------------|


_____________________________________________________________________________

Polly
_____________________________________________________________________________

TUNING:

Standard 1/2 step down

INTRO
e----------------------------------------------------------------------------|
b----------------------------------------------------------------------------|
g-----------------------7--7--x--5--5--5-------------------------------------|
d--2--x--0--5--5--x--0--7--7--x--5--5--5--0----------------------------------|
a--2--x--0--5--5--x--0--5--5--x--3--3--3--0----------------------------------|
e--0--x--0--3--3--x----------------------------------------------------------|
 play that 2 times

VERSE
e----------------------------------------------------------------------------|
b----------------------------------------------------------------------------|
g-----------------------7--7--x--5--5--5-------------------------------------|
d--2--2--0--5--5--x--0--7--7--x--5--5--5--0--2--x--0--5--5--x--0-------------|
a--2--2--0--5--5--x--0--5--5--x--3--3--3--0--2--x--0--5--5--x--0-------------|
e--0--0--0--3--3--x--------------------------0--x--0--3--3--x----------------|

e----------------------------------------------------------------------------|
b----------------------------------------------------------------------------|
g--7--7--x--5--5--5----------------------------------------------------------|
d--7--7--x--5--5--5--0-------------------------------------------------------|
a--5--5--x--3--3--3--0-------------------------------------------------------|
e----------------------------------------------------------------------------|
play that 2 times

CHORUS
e----------------------------------------------------------------------------|
b----------------------------------------------------------------------------|
g--7--x--5--5--5----------------------------7--7--x--5--5--5-----------------|
d--7--x--5--5--5--0--5--5--x--8--8--8--x-x--7--7--x--5--5--5--0--------------|
a--5--x--3--3--3--0--5--5--x--8--8--8--x-x--5--5--x--3--3--3--0--------------|
e--------------------3--3--x--6--6--6--x-x-----------------------------------|

e----------------------------------------------------------------------------|
b----------------------------------------------------------------------------|
g-----------------------7--7--x--5----5--5-----------------------------------|
d--5--5--x--8--8--8--0--7--7--x--5----5--5--0--5--5--x--8--8--8--x-x---------|
a--5--5--x--8--8--8--0--5--5--x--3-3--3--3--0--5--5--x--8--8--8--x-x---------|
e--3--3--x--6--6--6--0-------------------------3--3--x--6--6--6--x-x---------|

e----------------------------------------------------------------------------|
b----------------------------------------------------------------------------|
g--7--7--x--5--5--5----------------------------------------------------------|
d--7--7--x--5--5--5--0--5--5--x--8----8--8--x-x------------------------------|
a--5--5--x--3--3--3--0--5--5--x--8----8--8--x-x------------------------------|
e-----------------------3--3--x--6-6--6--6--x-x------------------------------|

e----------------------------------------------------------------------------|
b----------------------------------------------------------------------------|
g--7--7--x--5--5--5--------------------------7--7--x--5--5--5----------------|
d--7--7--x--5--5--5--0--5--5--x--8--8--8--0--7--7--x--5--5--5--0-------------|
a--5--5--x--3--3--3--0--5--5--x--8--8--8--0--5--5--x--3--3--3--0-------------|
e-----------------------3--3--x--6--6--6--0----------------------------------|

e----------------------------------------------------------------------------|
b----------------------------------------------------------------------------|
g-----------------------7--7--x--5--5--5-------------------------------------|
d--5--5--x--8--8--8--0--7--7--x--5--5--5--0--5--5--x--8--8--8--0-------------|
a--5--5--x--8--8--8--0--5--5--x--3--3--3--0--5--5--x--8--8--8--0-------------|
e--3--3--x--6--6--6--0-----------------------3--3--x--6--6--6--0-------------|

e----------------------------------------------------------------------------|
b----------------------------------------------------------------------------|
g--7--7--x--5--5--5----------------------------------------------------------|
d--7--7--x--5--5--5--0--5--5--x--8--8--8--0----------------------------------|
a--5--5--x--3--3--3--0--5--5--x--8--8--8--0----------------------------------|
e-----------------------3--3--x--6--6--6--0----------------------------------|

VERSE
e----------------------------------------------------------------------------|
b----------------------------------------------------------------------------|
g-----------------------7--7--x--5--5--5-------------------------------------|
d--2--x--0--5--5--x--0--7--7--x--5--5--5--0----------------------------------|
a--2--x--0--5--5--x--0--5--5--x--3--3--3--0----------------------------------|
e--0--x--0--3--3--x----------------------------------------------------------|

play that 6 times
then after 2nd time chorus is played
e----------------------------------------------------------------------------|
b----------------------------------------------------------------------------|
g----------------------------------------------------------------------------|
d--2-------------------------------------------------------------------------|
a--2-------------------------------------------------------------------------|
e--0-------------------------------------------------------------------------|

END
e----------------------------------------------------------------------------|
b----------------------------------------------------------------------------|
g----------------------------------------------------------------------------|
d--2-------------------------------------------------------------------------|
a--2-------------------------------------------------------------------------|
e--0-------------------------------------------------------------------------|


_____________________________________________________________________________

About A Girl
_____________________________________________________________________________

TUNING:
Standard 1 step down

INTRO/VERSE
The chords are Em and G but the strumming roughly is
e--------------3-----------------------3-----------------------3-------------|
b--------------0--0--0-----0-----------0--0--0-----0-----------0--0--0-------|
g--------0--------0--0-----0-----0--------0--0-----0-----0--------0--0-------|
d--2--2--0--------0--0--2-----2--0--------0--0--2-----2--0--------0--0-------|
a--2--2--------------0--2-----2--------------0--2-----2--------------0-------|
e--0--0-----3-----------0-----0-----3-----------0-----0-----3----------------|

e----------------3-----------------------------------------------------------|
b----0-----------0--0--0-----------------------------------------------------|
g----0-----0--------0--0-----------------------------------------------------|
d-2-----2--0--------0--0-----------------------------------------------------|
a-2-----2--------------0-----------------------------------------------------|
e-0-----0-----3--------------------------------------------------------------|

CHORUS
e----------------------------------------------------------------------------|
b--6--6--6----------------------------------------6--6--6--------------------|
g--6--6--6-----6--6--(0)---------------------(0)--6--6--6----6--6--(0)-------|
d--6--6--6-----6--6--(0)---4--4-----4---4-4--(0)--6--6--6----6--6--(0)-------|
a--4--4--4-----------------4--4--x--4---4-4-------4--4--4--------------------|
e-----------4--------------2--2--x--2---2-2----------------4-----------------|

e----------------------------------------------------------------------------|
b----------------------------------------------------------------------------|
g----------------------------------------------------------------------------|
d--4--4-----4--4-4-----------------------------------------------------------|
a--4--4-----4--4-4-----------------------------------------------------------|
e--2--2--0--2--2-2-----------------------------------------------------------|
Play that twice

e--0--0--0-----------------0--0--0-------------------------------------------|
b--0--0--0------/9--9--9---2--2--2---5--5--5---0-----------------------------|
g--x--x---------/9--9--9---2--2--2---5--5--5---0-----------------------------|
d--2--2---------/9--9--9---2-----2---5--5--5---0-----------------------------|
a--2--2---------/7--7--7---0-----2---3--3--3---0-----------------------------|
e--0--0----------------------------------------------------------------------|

SOLO
e----------------------------------------------------------------------------|
b---------------------------9--9/12-------12---------------------------------|
g-------------------7--7/9--9--9/12--12---12---------------------------------|
d-------------5--7--7--7/9--9--9/12--12---12---------------------------------|
a------5--7------------------------------------------------------------------|
e--0-------------------------------------------------------------------------|
Play that 4 times.

_____________________________________________________________________________

Blandest
_____________________________________________________________________________

TUNING:
Standard 1/2 step down

e----------------------------------------------------------------------------|
b----------------------------------------------------------------------------|
g----------------------------------------------------------------------------|
d----------------------------------------------------------------------------|
a----------------------------------------------------------------------------|
e----------------------------------------------------------------------------|


_____________________________________________________________________________

Dive
_____________________________________________________________________________
TUNING:

Normal tuning

INTRO
e----------------------------------------------------------------------------|
b----------------------------------------------------------------------------|
g------------------------/9-9-9-0--------------------------------------------|
d------------------2-2---/9-9-9-0--------------------------------------------|
a--4--0-4-4--0--4--2-2---/7-7-7-0--------------------------------------------|
e--2--0-2-2--0--2--0-0-------------------------------------------------------|

play that 3 times, then
e----------------------------------------------------------------------------|
b----------------------------------------------------------------------------|
g----------------------------------------------------------------------------|
d-------------------2-2---2/7------------------------------------------------|
a--4--0--4-4--0--4--2-2------------------------------------------------------|
e--2--0--2-2--0--2--0-0---------5\0------------------------------------------|

VERSE
e------------------------0--0------------------------------------------------|
b------------------------0--0------------------------------------------------|
g------------------------x--x------------------------------------------------|
d-----------2--(2)-------2--2------------------------------------------------|
a--------0---------------2--2------------------------------------------------|
e--2--2------------------0--0------------------------------------------------|

CHORUS
e--------------------------0--0----------------------0--0--0--0--------------|
b--------------------------0--0----------------------0--0--0--0--------------|
g--4----4-6----6-----------x--x----------------------x--x--x--x--------------|
d--4--0-4-6--0-6-5----5-2--2--2----------------------2--2--2--2--------------|
a--2--0-2-4--0-4-5--0-5-2--2--2--4--0-4-4--0--4-2-2--2--2--2--2--------------|
e----------------3--0-3-0--0--0--2--0-2-2--0--2-0-0--0--0--0--0--------------|

play that 2 times, then
e--------------------------0--0----------------------------------------------|
b--------------------------0--0----------------------------------------------|
g--4----4-6----6-----------x--x-----------------------/9-9-9-0---------------|
d--4--0-4-6--0-6-5----5-2--2--2-----------------------/9-9-9-0---------------|
a--2--0-2-4--0-4-5--0-5-2--2--2--4--0-4-4--0--4-2-2---/7-7-7-0---------------|
e----------------3--0-3-0--0--0--2--0-2-2--0--2-0-0--------------------------|

then
e----------------------------------------------------------------------------|
b----------------------------------------------------------------------------|
g------------------------/9-9-9-0--------------------------------------------|
d------------------2-2---/9-9-9-0--------------------------------------------|
a--4--0-4-4--0--4--2-2---/7-7-7-0--------------------------------------------|
e--2--0-2-2--0--2--0-0-------------------------------------------------------|

play that 2 times, then
e----------------------------------------------------------------------------|
b----------------------------------------------------------------------------|
g----------------------------------------------------------------------------|
d-------------------2-2---2/7------------------------------------------------|
a--4--0--4-4--0--4--2-2------------------------------------------------------|
e--2--0--2-2--0--2--0-0---------5\0------------------------------------------|

INTERLUDE
e--------------------------0--0--0--0----------------------------------------|
b--------------------------0--0--0--0----------------------------------------|
g--------------------------x--x--x--x----------------------------------------|
d-----------2--x--2-----2--2--2--2--2----------------------------------------|
a--------0--------------2----------------------------------------------------|
e--2--2--------------0--0----------------------------------------------------|
play that 4 times

SOLO
e----------------------------------------------------------------------------|
b----------------------------------------------------------------------------|
g----------------------------------------------------------------------------|
d--8--6--8-8--6--8-----------------------------------------------------------|
a-------------------7-7------------------------------------------------------|
e----------------------------------------------------------------------------|
play that 4 times

OUTRO
e----------------------------------------------------------------------------|
b----------------------------------------------------------------------------|
g------------------------/9--------------------------------------------------|
d------------------2-2---/9-------------------2-2--/-\-----------------------|
a--4--0--4-4--0--4-2-2---/7---4--0--4-4--0--4-2-2--/-\---4-------------------|
e--2--0--2-2--0--2-0-0--------2--0--2-2--0--2-0-0--------2-------------------|


_____________________________________________________________________________

They Hung Him On A Cross
_____________________________________________________________________________

TUNING:
Standard

E - B - E - A - E - B - E

(Look here for help with how to play these chords)


_____________________________________________________________________________

Grey Goose
_____________________________________________________________________________

TUNING:
Standard

           E         B
e----------------------------------------------------------------------------|
b----------------------------------------------------------------------------|
g----------------1-2-4-------------------------------------------------------|
d------0-1-2---2-------------------------------------------------------------|
a---2------------------------------------------------------------------------|
e----------------------------------------------------------------------------|


_____________________________________________________________________________

Ain't It A Shame
_____________________________________________________________________________

TUNING:
Standard

E - B - E - A - E - B - E

(Look here for help with how to play these chords)

_____________________________________________________________________________

Token Eastern Song
_____________________________________________________________________________

TUNING:
Standard

VERSE

e----------------------------------------------------------------------------|
b----------------------------------------------------------------------------|
g----------------------------------------------------------------------------|
d---3-3-3-2------------------------------------------------------------------|
a---3-3-3-2------------------------------------------------------------------|
e---1-1-1-0------------------------------------------------------------------|

CHORUS

e----------------------------------------------------------------------------|
b----------------------------------------------------------------------------|
g----------------------------------------------------------------------------|
d---5-5-5-4-3-3--------------------------------------------------------------|
a---5-5-5-4-3-3--------------------------------------------------------------|
e---3-3-3-2-1-1-0------------------------------------------------------------|

_____________________________________________________________________________

Even In His Youth
_____________________________________________________________________________

TUNING:
Standard tuning

MAIN RIFF

 C5   G5A#5  G5
e---------------|
b---------------|
g-5-------------|
d-5--0-5-6-6--5-|
a-3--0-5-6-6--5-|
e----0-3-4-4--3-|

CHORUS

E5     C5	G5     D5
0--0------------3--3-----------|
0--0------------3--3---3--3----|
-----0-5--5-0---0--0-0-2--2-0--| 4 times
2--2-0-5--5-0---0--0-0-0--0-0--|
2--2-0-3--3-0--------0------0--|
0--0-0------0---3--3-0------0--|

B5
---------------------------------|
---------------------------------|
4-4-4-4-4-4-4-4--4-----------4---|
4-4-4-4-4-4-4-4--4-----------4---|
2-2-2-2-2-2-2-2--2-----------2---|
---------------------------------|


_____________________________________________________________________________

Polly
_____________________________________________________________________________

TUNING:

Standard

INTRO
e----------------------------------------------------------------------------|
b----------------------------------------------------------------------------|
g-----------------------7--7--x--5--5--5-------------------------------------|
d--2--x--0--5--5--x--0--7--7--x--5--5--5--0----------------------------------|
a--2--x--0--5--5--x--0--5--5--x--3--3--3--0----------------------------------|
e--0--x--0--3--3--x----------------------------------------------------------|
 play that 2 times

VERSE
e----------------------------------------------------------------------------|
b----------------------------------------------------------------------------|
g-----------------------7--7--x--5--5--5-------------------------------------|
d--2--2--0--5--5--x--0--7--7--x--5--5--5--0--2--x--0--5--5--x--0-------------|
a--2--2--0--5--5--x--0--5--5--x--3--3--3--0--2--x--0--5--5--x--0-------------|
e--0--0--0--3--3--x--------------------------0--x--0--3--3--x----------------|

e----------------------------------------------------------------------------|
b----------------------------------------------------------------------------|
g--7--7--x--5--5--5----------------------------------------------------------|
d--7--7--x--5--5--5--0-------------------------------------------------------|
a--5--5--x--3--3--3--0-------------------------------------------------------|
e----------------------------------------------------------------------------|
play that 2 times

CHORUS
e----------------------------------------------------------------------------|
b----------------------------------------------------------------------------|
g--7--x--5--5--5----------------------------7--7--x--5--5--5-----------------|
d--7--x--5--5--5--0--5--5--x--8--8--8--x-x--7--7--x--5--5--5--0--------------|
a--5--x--3--3--3--0--5--5--x--8--8--8--x-x--5--5--x--3--3--3--0--------------|
e--------------------3--3--x--6--6--6--x-x-----------------------------------|

e----------------------------------------------------------------------------|
b----------------------------------------------------------------------------|
g-----------------------7--7--x--5----5--5-----------------------------------|
d--5--5--x--8--8--8--0--7--7--x--5----5--5--0--5--5--x--8--8--8--x-x---------|
a--5--5--x--8--8--8--0--5--5--x--3-3--3--3--0--5--5--x--8--8--8--x-x---------|
e--3--3--x--6--6--6--0-------------------------3--3--x--6--6--6--x-x---------|

e----------------------------------------------------------------------------|
b----------------------------------------------------------------------------|
g--7--7--x--5--5--5----------------------------------------------------------|
d--7--7--x--5--5--5--0--5--5--x--8----8--8--x-x------------------------------|
a--5--5--x--3--3--3--0--5--5--x--8----8--8--x-x------------------------------|
e-----------------------3--3--x--6-6--6--6--x-x------------------------------|

e----------------------------------------------------------------------------|
b----------------------------------------------------------------------------|
g--7--7--x--5--5--5--------------------------7--7--x--5--5--5----------------|
d--7--7--x--5--5--5--0--5--5--x--8--8--8--0--7--7--x--5--5--5--0-------------|
a--5--5--x--3--3--3--0--5--5--x--8--8--8--0--5--5--x--3--3--3--0-------------|
e-----------------------3--3--x--6--6--6--0----------------------------------|

e----------------------------------------------------------------------------|
b----------------------------------------------------------------------------|
g-----------------------7--7--x--5--5--5-------------------------------------|
d--5--5--x--8--8--8--0--7--7--x--5--5--5--0--5--5--x--8--8--8--0-------------|
a--5--5--x--8--8--8--0--5--5--x--3--3--3--0--5--5--x--8--8--8--0-------------|
e--3--3--x--6--6--6--0-----------------------3--3--x--6--6--6--0-------------|

e----------------------------------------------------------------------------|
b----------------------------------------------------------------------------|
g--7--7--x--5--5--5----------------------------------------------------------|
d--7--7--x--5--5--5--0--5--5--x--8--8--8--0----------------------------------|
a--5--5--x--3--3--3--0--5--5--x--8--8--8--0----------------------------------|
e-----------------------3--3--x--6--6--6--0----------------------------------|

VERSE
e----------------------------------------------------------------------------|
b----------------------------------------------------------------------------|
g-----------------------7--7--x--5--5--5-------------------------------------|
d--2--x--0--5--5--x--0--7--7--x--5--5--5--0----------------------------------|
a--2--x--0--5--5--x--0--5--5--x--3--3--3--0----------------------------------|
e--0--x--0--3--3--x----------------------------------------------------------|

play that 6 times
then after 2nd time chorus is played
e----------------------------------------------------------------------------|
b----------------------------------------------------------------------------|
g----------------------------------------------------------------------------|
d--2-------------------------------------------------------------------------|
a--2-------------------------------------------------------------------------|
e--0-------------------------------------------------------------------------|

END
e----------------------------------------------------------------------------|
b----------------------------------------------------------------------------|
g----------------------------------------------------------------------------|
d--2-------------------------------------------------------------------------|
a--2-------------------------------------------------------------------------|
e--0-------------------------------------------------------------------------|

_____________________________________________________________________________

Opinion
_____________________________________________________________________________

TUNING:

Standard

B5     G5      D5      F#5
-------------------------------|
-------------------------------|
4--4-0------0---7--7-0-------0-|
4--4-0-5--5-0---7--7-0-4-4-4-0-|
2--2-0-5--5-0---5--5-0-4-4-4-0-|
-----0-3--3-0--------0-2-2-2-0-|


_____________________________________________________________________________

Lithium
_____________________________________________________________________________

TUNING:

Standard

INTRO
e----------------------------------------------------------------------------|
b----------------------------------------------------------------------------|
g-------------------------6--x-----------------------------7--7--7-----------|
d-------------------------6--x---------7------5--5-5--5/7--7--7--7-----------|
a-------------6--------4-------------7--------3--3-3--3/5--5--5--5--0--------|
e--0--x--0--4----x--0----------0--5-------0----------------------------------|

e----------------------------------------------------------------------------|
b----------------------------------------------------------------------------|
g---------------7--7--7------------------------------------------------------|
d--4--4-4--4/7--7--7--7------------------------------------------------------|
a--2--2-2--2/5--5--5--5--0---------------------------------------------------|
e----------------------------------------------------------------------------|

VERSE
e----------------------------------------------------------------------------|
b-------------------------------------------------5--------------------------|
g-------------------------6--x--------------------5-------------7------------|
d-------------------------6--x----------7------5-----5--5/7--7--7------------|
a--------------6-------4-------------7---------3-----3--3/5--5-----0---------|
e--0--x--0--4----x--0----------0--5-------0----------------------------------|

e----------------------------------------------------------------------------|
b-----4-------------7--------------------------------------------------------|
g-----4-------------7--------------------------------------------------------|
d--4-----4--4/7--7-----------------------------------------------------------|
a--2-----2--2/5--5-----------------------------------------------------------|
e----------------------------------------------------------------------------|

e----------------------------------------------------------------------------|
b-------------------------------------------------5--------------------------|
g-------------------------6--x--------------------5-------------7------------|
d-------------------------6--x----------7------5-----5--5/7--7--7------------|
a--------------6-------4-------------7---------3-----3--3/5--5-----0---------|
e--0--x--0--4----x--0----------0--5-------0----------------------------------|

e----------------------------------------------------------------------------|
b----------------------------------------------------------------------------|
g---------------7--7---------------------------------------------------------|
d--4--4-4--4/7--7--7---------------------------------------------------------|
a--2--2-2--2/5--5--5--0------------------------------------------------------|
e----------------------------------------------------------------------------|

CHORUS
e----------------------------------------------------------------------------|
b----------------------------------------------------------------------------|
g------------------6--6---------------5--5-5--5/7--7--7----------------------|
d--2--2----6--6----6--6----7--7--7----5--5-5--5/7--7--7----------------------|
a--2--2----6--6----4--4----7--7--7----3--3-3--3/5--5--5--0-------------------|
e--0--0-0--4--4-0-------0--5--5--5-0-----------------------------------------|

e----------------------------------------------------------------------------|
b----------------------------------------------------------------------------|
g--4--4-4--4/7--7--7---------------------------------------------------------|
d--4--4-4--4/7--7--7---------------------------------------------------------|
a--2--2-2--2/5--5--5--0------------------------------------------------------|
e----------------------------------------------------------------------------|


_____________________________________________________________________________

Been A Son
_____________________________________________________________________________

TUNING:

1/2 step down - drop D

INTRO/VERSE
e----------------------------------------------------------------------------|
b--3--3------------3--3------------3--3------------3--3----------------------|
g--2--2------------2--2------------2--2------------2--2----------------------|
d--0--0------------0--0------------0--0------------0--0----------------------|
a--------3--2--0---------3--2--0---------3--2--0---------3--2--0-------------|
e----------------------------------------------------------------------------|

play that 3 times, then
e----------------------------------------------------------------------------|
b--3--3----------------------------------------------------------------------|
g--2--2----------------------------------------------------------------------|
d--0--0----------------------------------------------------------------------|
a--------3--2--0-------------------------------------------------------------|
e----------------------------------------------------------------------------|

CHORUS
e----------------------------------------------------------------------------|
b----------------------------------------------------------------------------|
g----------------------------------------------------------------------------|
d--5--5--5--3--3--2--2--2------------5--5--5--3--3--2--2--2------------------|
a--5--5--5--3--3--2--2--2--3--2--0---5--5--5--3--3--2--2--2--3--2--0---------|
e--5--5--5--3--3--2--2--2------------5--5--5--3--3--2--2--2------------------|
play that 2 times.

_____________________________________________________________________________

Sliver
_____________________________________________________________________________

TUNING:

Standard 1/2 step down

CHORUS
e----------------------------------------------------------------------------|
b----------------------------------------------------------------------------|
g----------0--5--5-5--0------------------------------------------------------|
d--7--7--7-0--5--5-5--0------------------------------------------------------|
a--7--7--7-0--3--3-3--0------------------------------------------------------|
e--5--5--5-------------------------------------------------------------------|

VERSE
e----------------------------------------------------------------------------|
b----------------------------------------------------------------------------|
g--5--5-0-------0--5--0---------0--5--5-0--------0--5--0----------0--5--5-0--|
d--5--5-0--3--3-0--5--0--7--7-7-0--5--5-0--3-3-3-0--5--0--7--7-7--0--5--5-0--|
a--3--3-0--3--3-0--3--0--7--7-7-0--3--3-0--3-3-3-0--3--0--7--7-7--0--3--3-0--|
e----------1--1----------5--5-5------------1-1-1----------5--5-5-------------|

e----------------------------------------------------------------------------|
b----------------------------------------------------------------------------|
g--------0--5--0----------0--------------------------------------------------|
d--3-3-3-0--5--0--7--7-7--0--------------------------------------------------|
a--3-3-3-0--3--0--7--7-7--0--------------------------------------------------|
e--1-1-1----------5--5-5-----------------------------------------------------|

e----------------------------------------------------------------------------|
b----------------------------------------------------------------------------|
g--5---------------------------5-5-5-------------------------5---------------|
d--5---------------------------5-5-5-------------------------5---------------|
a--3---------------------------3-3-3-------------------------3---------------|
e----------------------------------------------------------------------------|

END
e----------------------------------------------------------------------------|
b----------------------------------------------------------------------------|
g--5-------------------------------------------------------------------------|
d--5-------------------------------------------------------------------------|
a--3-------------------------------------------------------------------------|
e----------------------------------------------------------------------------|


_____________________________________________________________________________

Where Did You Sleep Last Night
_____________________________________________________________________________

TUNING:

Standard down 1/2 step

INTRO
e-----0--0-----------------------------3-------------------------------------|
b--0--0--0---------------2--2--0-------0---0--4---4--4--4--------4-----------|
g--x--2--x--2------------2--2--0-------0---0--4---4--4--4--------4-----------|
d--2-----2--2--------2------2--0---0-------0--4---4--4--4--------4-----------|
a--2-----2-----------0------0------x-------x--2------2--------2--------------|
e--0-----0-----0-2-3---------------3-------3---------------2--2-----(0)------|

e------------0--0------0--------0--(0)-0------0---0--------------------------|
b--0---0--0--0--0---0--0--0--0--0---0--0---0--0---0--------------2--0--------|
g--x---x--x--x--x---x--x--x--x--x-------------x---x--------------2--0--------|
d--2------------2---------------2-------------2--------------2---2--0--------|
a--2------------2---------------2-------------2--------------0---0-----------|
e--0------------0---------------0-------------0-------0-2-3------------------|

e------3-------------------------------------0-------------------------------|
b------0--0---4---4--4--4--4--4--4-----------0-------------------------------|
g------0--0---4---4--4--4--4--4--4-----------x-------------------------------|
d--0----------4---4--4--4--4--4--4-----2--2----------------------------------|
a--x----------2------2-----2--2--2-----2------------2------------------------|
e--3-----------------------2--2--2--0--0---------0---------------------------|

VERSE
e----------------------------------------------------------------------------|
b-------------------------------------------2----0-------0-------4--4--4-----|
g-------------------------------------------2----0-------0-------4--4--4-----|
d------2----------2------------2-----0--2------2-------0-----4---4--4--4-----|
a----2---2-----------------2------2-----0------0-------------2---------------|
e--0---------0-------0--0--0------0------------------3-----------------------|

e----------------------------0--------0--0---0---0--0---0--------------------|
b-----------------------0----0---0----0--0---0---0--0---0-----0--------------|
g------4-----------x----x----x---x--x----x----------x---------0--------------|
d------4-----------2---------2------2----2----------2------2-----------------|
a--2-------)--2--------------2-----------2----------2------2-----------------|
e---------2---0 ------0------0-----------0----------0------0-----------------|

e-------(0)-------3--------------------------------------------0-------------|
b--2---2-2-0--0---0-0-0--4---4-4-4--4--4-4-4-0--0--0-0-0--0--0-0-0-----------|
g--2---2-2-0--0---0-0-0--4---4-4-4--4--4-4-4-0--x--x-x-x--x--x-x-x-----------|
d--2-----2-0--0-----0----4---4-4-4--4--4---4----2----2----2--2---2-----------|
a--0----------x-----0----2-----2----2-----------2----2----2------2-----------|
e-------------3---------------------------------0----0----0------0-----------|

The rest is just the chords:
E A G B


_____________________________________________________________________________

Pay To Play
_____________________________________________________________________________

TUNING:

Standard tuning

INTRO
e----------------------------------------------------------------------------|
b--3-3----------------------------3-3----------------------------------------|
g--2-2--0-4-4--0------0-5----5-0--2-2--0-4-4--0------0-5----5-0--------------|
d--0-0--0-4-4--0-3-3--0-5----5-0--0-0--0-4-4--0-3-3--0-5----5-0--------------|
a-------0-2-2--0-3-3--0 3--0-3-0-------0-2-2--0-3-3--0 3--0-3-0--------------|
e----------------1-1----------------------------1-1--------------------------|
play that 2 times

VERSE
e----------------------------------------------------------------------------|
b---------------)-------------------------------------)----------------------|
g--4/5--5--5---5--(5)--------------------4/5--5--5---5--(5)------------------|
d----------------------------------------------------------------------------|
a----------------------------------------------------------------------------|
e----------------------------------------------------------------------------|

e----------------------------------------------------------------------------|
b---------------)-------------------------------------)----------------------|
g--4/5--5--5---5--(5)--------------------4/5--5--5---5--(5)------------------|
d----------------------------------------------------------------------------|
a----------------------------------------------------------------------------|
e----------------------------------------------------------------------------|

CHORUS
e----------------------------------------------------------------------------|
b--3-3----------------------------3-3----------------------------------------|
g--2-2--0-4-4--0------0-5----5-0--2-2--0-4-4--0------0-5----5-0--------------|
d--0-0--0-4-4--0-3-3--0-5----5-0--0-0--0-4-4--0-3-3--0-5----5-0--------------|
a-------0-2-2--0-3-3--0 3--0-3-0-------0-2-2--0-3-3--0 3--0-3-0--------------|
e----------------1-1----------------------------1-1--------------------------|
play that 2 times.

BRIDGE
e----------------------------------------------------------------------------|
b--3----------------------------------------------------------)--------------|
g--2------------------------------------------------3--3--3--3--(3)----------|
d--0------------------------4------4--------4--------------------------------|
a---------------------------4-----------4---4--------------------------------|
e---------------------------2-----------2------------------------------------|

after the second time you play the bridge, repeat chorus,
then after drums and bass play,
Fade-in ...................
e----------------------------------------------------------------------------|
b----------------------------------------------------------------------------|
g--0----------0-----------0--------------------------------------------------|
d--0----------0-----------0--------------------------------------------------|
a--0----------0-----------0--------------------------------------------------|
e----------------------------------------------------------------------------|
Tremelo ...................

END
e----------------------------------------------------------------------------|
b--3-------------------------------------------------------------------------|
g--2-------------------------------------------------------------------------|
d--0-------------------------------------------------------------------------|
a----------------------------------------------------------------------------|
e----------------------------------------------------------------------------|

_____________________________________________________________________________

Here She Comes Now
_____________________________________________________________________________

Tuning: Drop D tuned down a 3/4 steps
(1/4 higher than CGCFAD) maybe the recording is slowed down or sped up


MAIN RIFF

D
-------------I-----------------------|I
----7----7---I------12---------10----|I
--7---7----7-I---11----11----9----9--|I
0------------I-0-----------0---------|I
-------------I-----------------------|I
-------------I-----------------------|I

VERSE

D
--------------|I
----7----7----|I
--7---7----7--|I
0-------------|I
--------------|I
--------------|I

CHORUS

D		G   C
--------------I---------------|I
3--3-3--3-3---I---------------|I
2--2-2--2-2-0-I-----5--5-5----|I This is played 2 or 4 times.
0--0-0--0-0-0-I5--5-5--5-5-0--|I
------------0-I5--5-3--3-3-0--|I
--------------I5--5-----------|I

Bb
--------------I--------------|I
--------------I--------------|I
3--3-3--3-3---I-3--3--3-3-0--|I
3--3-3--3-3---I-3--3--3-3-0--|I
1--1-1--1-1---I-1--1--1-1-0--|I
--------------I--------------|I


"HEAVIER" VERSE

D
2--2-2--2-2-2--|I
3--3-3--3-3-3--|I
2--2-2--2-2-2--|I
0--0-0--0-0-0--|I
---------------|I
---------------|I


_____________________________________________________________________________

Drain You
_____________________________________________________________________________

TUNING:

Standard Tuning

INTRO
e----------------------------------------------------------------------------|
b----------------------------------------------------------------------------|
g--4--4-4--4/8--8-8--0--------0--6--6-6--0--4--4-4--4/8--8-8--0--------0--6--|
d--4--4-4--4/8--8-8--0--6--6--0--6--6-6--0--4--4-4--4/8--8-8--0--6--6--0--6--|
a--2--2-2--2/6--6-6--0--6--6--0--4--4-4--0--2--2-2--2/6--6-6--0--6--6--0--4--|
e-----------------------4--4-------------------------------------4--4--------|

e----------------------------------------------------------------------------|
b----------------------------------------------------------------------------|
g--6-6--0--------------------------------------------------------------------|
d--6-6--0--------------------------------------------------------------------|
a--4-4--0--------------------------------------------------------------------|
e----------------------------------------------------------------------------|

VERSE
e----------------------------------------------------------------------------|
b----------------------------------------------------------------------------|
g--4--4-4--4/8--8-8--0--------0--6--6-6--0-----------------------------------|
d--4--4-4--4/8--8-8--0--6--6--0--6--6-6--0-----------------------------------|
a--2--2-2--2/6--6-6--0--6--6--0--4--4-4--0-----------------------------------|
e-----------------------4--4-------------------------------------------------|

PRE-CHORUS
e----------------------------------------------------------------------------|
b----------------------------------------------------------------------------|
g----------------------------------------------------------------------------|
d--4--4-----2----------------------------------------------------------------|
a--4--4-----2----------------------------------------------------------------|
e--2--2--0--0--0-------------------------------------------------------------|

CHORUS
e----------------------------------------------------------------------------|
b----------------------------------------------------------------------------|
g--6-6-6-6-6-6-6-0-----------------------------------------------------------|
d--6-6-6-6-6-6-6-0-2-2-2-2-2-2-2---------------------------------------------|
a--4-4-4-4-4-4-4-0-2-2-2-2-2-2-2---------------------------------------------|
e------------------0-0-0-0-0-0-0-0-------------------------------------------|

e----------------------------------------------------------------------------|
b----------------------------------------------------------------------------|
g--6-6-6-6-6-6-6-0-----------------------------------------------------------|
d--6-6-6-6-6-6-6-0-----------------------------------------------------------|
a--4-4-4-4-4-4-4-0-----------------------------------------------------------|
e----------------------------------------------------------------------------|

then
e----------------------------------------------------------------------------|
b----------------------------------------------------------------------------|
g--4--------2----------------------------------------------------------------|
d--4--------2---------6------------------------------------------------------|
a--2--------0---------6------------------------------------------------------|
e---------------------4------------------------------------------------------|


_____________________________________________________________________________

Aneurysm
_____________________________________________________________________________

TUNING:

Normal tuning

INTRO
e----------------------------------------------------------------------------|
b----------------------------------------------------------------------------|
g-----------------5--------4--------2-----0----------------------------------|
d-----4--------5--------4--4-----2--2--2--0----------------------------------|
a--4--4--0--3--------0--2-----0--0-----0-------------------------------------|
e--2-------------------------------------------------------------------------|

e----------------------------------------------------------------------------|
b----------------------------------------------------------------------------|
g--------------5-----------4-----------2-----0-------------------------------|
d-----4-----5--5--5-----4--4--4-----2--2--2--0-------------------------------|
a--4--4--0--3-----3--0--2-----2--0--0-----0----------------------------------|
e--2-------------------------------------------------------------------------|

then
e----------------------------------------------------------------------------|
b----------------------------------------------------------------------------|
g--3~~~-3---3---3---3/4~~-(4)/5--5--5--5--5/7--7/9/10-10/11--14--14--14--14--|
d----------------------------------------------------------------------------|
a----------------------------------------------------------------------------|
e----------------------------------------------------------------------------|

e-----------14-14-14-14-14-16-17-x-x-x-x-x\----------------------------------|
b--14-14-14------------------------------------------------------------------|
g----------------------------------------------------------------------------|
d----------------------------------------------------------------------------|
a----------------------------------------------------------------------------|
e----------------------------------------------------------------------------|

then
e----------------------------------------------------------------------------|
b----------------------------------------------------------------------------|
g-----------5--5--5-----4--4--4-----2--2--2----------------------------------|
d--4--4--0--5--5--5--0--4--4--4--0--2--2--2--0-------------------------------|
a--4--4--0--3--3--3--0--2--2--2--0--0--0--0--0-------------------------------|
e--2--2----------------------------------------------------------------------|

play that 8 times, then
e----------------------------------------------------------------------------|
b----------------------------------------------------------------------------|
g--3--3--3--3--3--3/4--4--4--4--4/5--5--5--5--5--5/6--6--6--6--6/7--7--7--7--|
d----------------------------------------------------------------------------|
a----------------------------------------------------------------------------|
e----------------------------------------------------------------------------|

e----------------------------------------------------14-14----14-------------|
b----------------------------------------------------14-14----14-------------|
g--7/8--8--8--8--8--8/9-9-9-9-9-9-9-9-9-9-9/13-14-14-------14----------------|
d----------------------------------------------------------------------------|
a----------------------------------------------------------------------------|
e----------------------------------------------------------------------------|

then
e----------------------------------------------------------------------------|
b----------------------------------------------------------------------------|
g----------------------------------------------------------------------------|
d--9-9-9-9-9-9-9-9-9-9-9-9-9-9-9-9-9-9-9-9-9-9-9-9-9-9-9-9-9-9-9-9-----------|
a--9-9-9-9-9-9-9-9-9-9-9-9-9-9-9-9-9-9-9-9-9-9-9-9-9-9-9-9-9-9-9-9-----------|
e--7-7-7-7-7-7-7-7-7-7-7-7-7-7-7-7-7-7-7-7-7-7-7-7-7-7-7-7-7-7-7-7-----------|

e----------------------------------------------------------------------------|
b----------------------------------------------------------------------------|
g--7--7--7-7-7--7-7-7-7-7-7-7-7----------------------------------------------|
d--7--7--7-7-7--7-7-7-7-7-7-7-7----------------------------------------------|
a--5--5--5-5-5--5-5-5-5-5-5-5-5----------------------------------------------|
e----------------------------------------------------------------------------|

e----------------------------------------------------------------------------|
b----------------------------------------------------------------------------|
g-----------------------------------7--7--7-7-7--7-7-7-7-7-7-7-7-------------|
d--9-9-9-9-9-9-9-9-9-9-9-9-9-9-9-9--7--7--7-7-7--7-7-7-7-7-7-7-7-------------|
a--9-9-9-9-9-9-9-9-9-9-9-9-9-9-9-9--5--5--5-5-5--5-5-5-5-5-5-5-5-------------|
e--7-7-7-7-7-7-7-7-7-7-7-7-7-7-7-7-------------------------------------------|

VERSE
e----------------------------------------------------------------------------|
b----------------------------------------------------------------------------|
g-----------------------------------7--7--7-7-7--7-7-7-7-7-7-7-7-------------|
d--9-9-9-9-9-9-9-9-9-9-9-9-9-9-9-9--7--7--7-7-7--7-7-7-7-7-7-7-7-------------|
a--9-9-9-9-9-9-9-9-9-9-9-9-9-9-9-9--5--5--5-5-5--5-5-5-5-5-5-5-5-------------|
e--7-7-7-7-7-7-7-7-7-7-7-7-7-7-7-7-------------------------------------------|
play that 4 times, then

CHORUS
e----------------------------------------------------------------------------|
b----------------------------------------------------------------------------|
g----------------------------------------------------------------------------|
d--4--4--6--7--7--7--8--9--9--9--8--7--7--7----------------------------------|
a--4--4--6--7--7--7--8--9--9--9--8--7--7--7--0-------------------------------|
e--2--2--4--5--5--5--6--7--7--7--6--5--5--5--0-------------------------------|

play that 8 times, the repeat verse and chorus, then
e----------------------------------------------------------------------------|
b----------------------------------------------------------------------------|
g--3--3--3/4--4/5--5--5/6--6--6--6/7--7--7--7/8--8--8--8--8--8/9--9--9--9/10-|
d----------------------------------------------------------------------------|
a----------------------------------------------------------------------------|
e----------------------------------------------------------------------------|

e----------------------------------------------------------------------------|
b----------------------------------------------------------------------------|
g--10-10-10-10-10/11-11/12-13-13-14-14-14-14-14-14-14/15-15-15-15/16-17-17---|
d----------------------------------------------------------------------------|
a----------------------------------------------------------------------------|
e----------------------------------------------------------------------------|

e----------------------------------------------------------------------------|
b----------------------------------------------------------------------------|
g--17/18---------------------------------------------------------------------|
d---------0------------------------------------------------------------------|
a----------------------------------------------------------------------------|
e----------------------------------------------------------------------------|

then
e----------------------------------------------------------------------------|
b----------------------------------------------------------------------------|
g-----------5--5--5-----4--4--4-----2--2--2----------------------------------|
d--4--4--0--5--5--5--0--4--4--4--0--2--2--2--0-------------------------------|
a--4--4--0--3--3--3--0--2--2--2--0--0--0--0--0-------------------------------|
e--2--2----------------------------------------------------------------------|
play that 10 times

OUTRO
e----------------------------------------------------------------------------|
b----------------------------------------------------------------------------|
g--3--3--4--4--4--4--4--4--4--5--5--5--5--5--6--7--6--7--7--8--8--9--9--9----|
d----------------------------------------------------------------------------|
a----------------------------------------------------------------------------|
e----------------------------------------------------------------------------|

e--------------------------------------------------------x-x-x-x-x-----------|
b--------------------------------------------------------x-x-x-x-x--/15\-----|
g--10-10-12-12-11-12-13-14-14-14-15-15-16-16-16-17-17-17------------/15\-----|
d----------------------------------------------------------------------------|
a----------------------------------------------------------------------------|
e----------------------------------------------------------------------------|


_____________________________________________________________________________

Smells Like Teen Spirit
_____________________________________________________________________________

TUNING:

Normal tuning

INTRO
e----------------------------------------------------------------------------|
b-----------------------------------x-x-x-x----------------------x-x-x-x-----|
g----------x-0-x--3--3--00----------x-x-x-x--6--6-6--0-0---------x-x-x-x-----|
d--3--3-3--x-0-x--3--3--00---6--6-6-x-x-x-x--6--6-6--0-0--3--3-3 x-x-x-x-----|
a--3--3-3--x-0-x--1--1--00---6--6-6-x-x-x-x--4--4-4--0-0--3--3-3 x-x-x-x-----|
e--1--1-1--------------------4--4-4-x-x-x-x---------------1--1-1 x-x-x-x-----|

e----------------------------------------------------------------------------|
b----------------------x-x-x-x-----------------------------------------------|
g--3--3-3--0-0---------x-x-x-x-----------------------------------------------|
d--3--3-3--0-0--6--6-6-x-x-x-x-----------------------------------------------|
a--1--1-1--0-0--6--6-6-x-x-x-x-----------------------------------------------|
e---------------4--4-4-x-x-x-x-----------------------------------------------|
[ Tab from: http://www.guitartabs.cc/tabs/n/nirvana/with_the_lights_out_tab.html ]
with distortion
e----------------------------------------------------------------------------|
b------------------x-x-x-x-------------------x-x-x-x-------------------------|
g--6--6------------x-x-x-x--3--3-------------x-x-x-x--6--6-------------------|
d--6--6--0--3--3-3-x-x-x-x--3--3---0--6--6-6-x-x-x-x--6--6--0----------------|
a--4--4--0--3--3-3-x-x-x-x--1--1---0--6--6-6-x-x-x-x--4--4--0----------------|
e--------0--1--1-1-x-x-x-x---------0--4--4-4-x-x-x-x--------0----------------|

then
e----------------------------------------------------------------------------|
b---------x-x-x-x------------------x-x-x-x-----------------------------------|
g---------x-x-x-x--3--3------------x-x-x-x--6--6-----------------------------|
d--3--3-3-x-x-x-x--3--3--0--6--6-6-x-x-x-x--6--6---0-------------------------|
a--3--3-3-x-x-x-x--1--1--0--6--6-6-x-x-x-x--4--4---0-------------------------|
e--1--1-1-x-x-x-x--------0--4--4-4-x-x-x-x---------0-------------------------|
play that 3 times

VERSE
e----------------------------------------------------------------------------|
b-----6----------6----------6----------6----------6----------6---------------|
g--5----------5----------5----------5----------5----------5------------------|
d----------------------------------------------------------------------------|
a----------------------------------------------------------------------------|
e----------------------------------------------------------------------------|

PRE-CHORUS
e----------------------------------------------------------------------------|
b----6---6---6---6---6---6---6---6---6---6---6---6---6---6---6---------------|
g--5---5---5---5---5---5---5---5---5---5---5---5---5---5---5---5-------------|
d-------------------------------------------------------------------0--------|
a-------------------------------------------------------------------0--------|
e-------------------------------------------------------------------0--------|

CHORUS
e----------------------------------------------------------------------------|
b---------x-x-x-x------------------x-x-x-x-----------------------------------|
g---------x-x-x-x--3--3------------x-x-x-x--6--6-----------------------------|
d--3--3-3-x-x-x-x--3--3--0--6--6-6-x-x-x-x--6--6---0-------------------------|
a--3--3-3-x-x-x-x--1--1--0--6--6-6-x-x-x-x--4--4---0-------------------------|
e--1--1-1-x-x-x-x--------0--4--4-4-x-x-x-x---------0-------------------------|

play that 6 times, then
e-----------------------------------------------------------------------------|
b-----------------)-------------------------------------)---------------------|
g----------------3-------------------------------------3----------------------|
d-----------------------------------------------------------------------------|
a--3--2--3--4-4-----3--2--3--/8-8--6--5--3--2--3--4-4-----3--2--3--/8-8--6--5-|
e--1--0--1--2-2-----1--0--1--/6-6--4--3--1--0--1--2-2-----1--0--1--/6-6--4--3-|

SOLO
e----------------------------------------------------------------------------|
b------------------------)---------------------------------------------------|
g-------8--10--------8--8-----6--5--6--5---------------)---------------------|
d--10------------6---------------------------8--6--8--8----6--5--------------|
a----------------------------------------------------------------------------|
e----------------------------------------------------------------------------|

play that 2 times, then
e----------------------------------------------------------------------------|
e----------------------------------------------------------------------------|
b----------------------------------------------------------------------------|
g----------------------------------------------------------------------------|
d--6--5---6--5---6--5---6-(5)-5\3---6--5---6--5---6--5---6-(5)-5\3-----------|
a----------------------------------------------------------------------------|
e----------------------------------------------------------------------------|
play that 4 times

END
e----------------------------------------------------------------------------|
b----------------------------------------------------------------------------|
g----------------------------------------------------------------------------|
d--3-------------------------------------------------------------------------|
a--3-------------------------------------------------------------------------|
e--1-------------------------------------------------------------------------|


_____________________________________________________________________________

Breed
_____________________________________________________________________________

TUNING:

Normal tuning

INTRO
(this is actually a studio effect, but when played live, kurt taps the back
 of the neck of the guitar to achieve that sound)
e----------------------------------------------------------------------------|
b----------------------------------------------------------------------------|
g----------------------------------------------------------------------------|
d---------------)-----------------)------------------------------------------|
a--4--4-----4--7-----4--4-----4--7-------------------------------------------|
e--2--2--0--2--5--0--2--2--0--2--5--0----------------------------------------|
play that 12 times

VERSE
e----------------------------------------------------------------------------|
b----------------------------------------------------------------------------|
g--11-11-11-11-11-11-11-11-11-11-11-11-11-11-11-11-11-11-11-11-11-11-11-11---|
d--11-11-11-11-11-11-11-11-11-11-11-11-11-11-11-11-11-11-11-11-11-11-11-11---|
a---9--9--9--9--9--9--9--9--9--9--9--9--9--9--9--9--9--9--9--9--9--9--9--9---|
e----------------------------------------------------------------------------|

e----------------------------------------------------------------------------|
b----------------------------------------------------------------------------|
g--11-11-11---)--------------------------------------------------------------|
d--11-11-11--9---9--7--------------------------------------------------------|
a---9--9--9------------------------------------------------------------------|
e----------------------------------------------------------------------------|

e----------------------------------------------------------------------------|
b----------------------------------------------------------------------------|
g--11-11-11-11-11-11-11-11-11-11-11-11-11-11-11-11-11-11-11-11-11-11-11\-----|
d--11-11-11-11-11-11-11-11-11-11-11-11-11-11-11-11-11-11-11-11-11-11-11\-----|
a---9--9--9--9--9--9--9--9--9--9--9--9--9--9--9--9--9--9--9--9--9--9--9\-----|
e----------------------------------------------------------------------------|

e----------------------------------------------------------------------------|
b----------------------------------------------------------------------------|
g----------------------------------------------------------------------------|
d--4-4-4-4-4-4-4-4-----------------------------------------------------------|
a--4-4-4-4-4-4-4-4-----------------------------------------------------------|
e--2-2-2-2-2-2-2-2-----------------------------------------------------------|

CHORUS
e----------------------------------------------------------------------------|
b--3--3---------------------------3--3---------------------------------------|
g--2--2-0-2--2-0--5--5-0--4--4-0--2--2--0-2--2-0--5--5-0--4--4-4-------------|
d--0--0-0-2--2-0--5--5-0--4--4-0--0--0--0-2--2-0--5--5-0--4--4-4-------------|
a-------0-0--0-0--3--3-0--2--2-0--------0-0--0-0--3--3-0--2--2-2-------------|
e----------------------------------------------------------------------------|

play that 2 times, then
e----------------------------------------------------------------------------|
b----------------------------------------------------------------------------|
g----------------------------------------------------------------------------|
d---------------)-----------------)-----------------)-----------------)------|
a--4--4-----4--7-----4--4-----4--7-----4--4-----4--7-----4--4-----4--7-------|
e--2--2--0--2--5--0--2--2--0--2--5--0--2--2--0--2--5--0--2--2--0--2--5--0----|

SOLO (tremelo throughout)
e----------------------------------------------------------------------------|
b----------------------------------------------------------------------------|
g--11--11--11--11---11--11--11--11---11--11--11--11---11--10--9--7\----------|
d----------------------------------------------------------------------------|
a---9---9---9---9----9---9---9---9----9---9---9---9----9---8--7--5\----------|
e----------------------------------------------------------------------------|

e----------------------------------------------------------------------------|
b----------------------------------------------------------------------------|
g--/14--14--14--14---14--14--14--14---14--14--14--14---14--13-12-(12)\-------|
d----------------------------------------------------------------------------|
a--/12--12--12--12---12--12--12--12---12--12--12--12---12--11-10-(10)\-------|
e----------------------------------------------------------------------------|

e----------------------------------------------------------------------------|
b-----------------------(18)----(18)-----(18)(18)-----(18)-------------------|
g--/17--17--17--17---17--17--17--17---17--17--17--17---17--18--16--15--14\---|
d----------------------------------------------------------------------------|
a--/15--15--15--15---15--15--15--15---15--15--15--15---15--16--14--13--12\---|
e----------------------------------------------------------------------------|

e-----------------------------------------------------------------------------|
b-----------------------------------------------------------------------------|
g--/19--19--19--19---19--19--19--19---19--19--19--19---20--20--21--21--22--22-|
d-----------------------------------------------------------------------------|
a--/17--17--17--17---17--17--17--17---17--17--17--17---18--18--19--19--20--20-|
e-----------------------------------------------------------------------------|

END
e----------------------------------------------------------------------------|
b----------------------------------------------------------------------------|
g----------------------------------------------------------------------------|
d--4-------------------------------------------------------------------------|
a--4-------------------------------------------------------------------------|
e--2-------------------------------------------------------------------------|

_____________________________________________________________________________

Verse Chorus Verse
_____________________________________________________________________________

TUNING:

Full step down


INTRO/VERSES

B5     G5	F#5	E5	B5	D5	A5	G5

---------------I----------------I--------------I----------------|I
---------------I----------------I--------------I----------------|I
4--4-----------I----------------I4---4-4/7-7---I----------------|I
4--4-0-5-5-5-0-I-4--4-0-2-2-2-0-I4---4-4/7-7-0-I7--7-7-7-5-5-0--|I
2--2-0-5-5-5-0-I-4--4-0-2-2-2-0-I2---2-2/5-5-0-I7--7-7-7-5-5-0--|I
-----0-3-3-3-0-I-2--2-0-0-0-0-0-I------------0-I5--5-5-5-3-3-0--|I


CHORUS

G#5    D#5	B5	D5

---------------I-----------------|I
---------------I-----------------|I
-------8-8-8---I--------7-7-7----|I
6--6-0-8-8-8-0-I-9--9-0-7-7-7-0--|I
6--6-0-6-6-6-0-I-9--9-0-5-5-5-0--|I
4--4-0-------0-I-7--7-0-------0--|I

CHORUS ENDING

G#5		 F#5

----------------I------------------|I
----------------I------------------|I
----------------I------------------|I
6-6-6-6-6-6-6-6-I-4-4-4-4-4-4-4-0--|I
6-6-6-6-6-6-6-6-I-4-4-4-4-4-4-4-0--|I
4-4-4-4-4-4-4-4-I-2-2-2-2-2-2-2-0--|I


INTERLUDE

B5	G5    F#5   Em7
-------------I-----------------|I
-------------I-----------------|I
4--4------0--I-----0-0--0---0--|I
4--4---------I-------0--0---0--|I
2----2-------I------------0----|I
-------3-----I-2---------------|I

_____________________________________________________________________________

Old Age
_____________________________________________________________________________

TUNING:

Standard Tuning

INTRO/PRE-CHORUS

E5		C

0----0---0-0---I----------------|I
0----0---0-0---I-5--5-5--5-5----|I
-------------0-I-5--5-5--5-5-0--|I
2--2-2---2-2-0-I-5--5-5--5-5-0--|I
2--2-2---2-2-0-I-3--3-3--3-3-0--|I
0--0-0---0-0-0-I-------------0--|I


VERSE

E5		C5

---------------I----------------|I
---------------I----------------|I
---------------I-5----5-----5-0-|I play twice
----2------2-0-I-5-------5----0-|I
2---2----2-2-0-I-3--------------|I
0--------0---0-I----------------|I

let ring

G5	    A5		  C
----3-----I-------------I-------------I-----------------|I
----3-----I-2---2-------I-5----5----5-I----5-5-5-5-5----|I
0---0-----I-2---2----2--I-5----5----5-I--5-5-5-5-5-5-0--|I
0---0-----I-2---2----2--I-5----5----5-I--5-5-5-5-5-5-0--|I
----------I-0---0----0--I-3----3----3-I--3-3-3-3-3-3-0--|I
3---------I-------------I-------------I-----------------|I
let ring

(PRE-CHORUS:REPEAT INTRO)

CHORUS
A
---------------I0----0---0-0----|I
2--2-2-2-2-2---I0----0---0-0----|I
2--2-2-2-2-2-0-I-------------0--|I
2--2-2-2-2-2-0-I2--2-2---2-2-0--|I
0--0-0-0-0-0-0-I2--2-2---2-2-0--|I
-------------0-I0--0-0---0-0-0--|I

_____________________________________________________________________________

Endless Nameless
_____________________________________________________________________________

/random noise

Coming soon...

TUNING:

Standard

e----------------------------------------------------------------------------|
b----------------------------------------------------------------------------|
g----------------------------------------------------------------------------|
d----------------------------------------------------------------------------|
a----------------------------------------------------------------------------|
e----------------------------------------------------------------------------|


_____________________________________________________________________________

Dumb
_____________________________________________________________________________

TUNING:

Standard

VERSE
e----------------------------------------------------------------------------|
b----------------------------------------------------------------------------|
g----2------2--------5-------5-----------------------------------------------|
d----2----2-2--------5-----5-5-0---------------------------------------------|
a-2--2-2-0--------5--5---3-----0---------------------------------------------|
e-0----0------0---3----0-----------------------------------------------------|
  PM   PM..   PM...    PM...

CHORUS
e-0-----0---0-0----3------3---3-3--------------------------------------------|
b-0-----0---0-0----0------0---0-0-0------------------------------------------|
g---------------0--0------0---0-0-0------------------------------------------|
d-2-----2---2-2-0--0------0---0-0-0------------------------------------------|
a-2---2-2---2-2-0------------------------------------------------------------|
e-0---0-0---0-0-0---3---3-3---3-3-0------------------------------------------|
  let ring

play 3 times then
e-0-----0---0-0----3------3--------------------------------------------------|
b-0-----0---0-0----0------0--------------------------------------------------|
g---------------0--0------0--------------------------------------------------|
d-2-----2---2-2-0--0------0--------------------------------------------------|
a-2---2-2---2-2-0------------------------------------------------------------|
e-0---0-0---0-0-0---3---3-3---3/7-7-\----------------------------------------|
  let ring

BRIDGE
e----------------------------------------------------------------------------|
b-4--4-4--4-4-----5--5-5--5-5------------------------------------------------|
g-4--4-4--4-4-0---5--5-5--5-5-0----------------------------------------------|
d-4--4-4--4-4-0---5--5-5--5-5-0----------------------------------------------|
a-2--2-2--2-2-0---3--3-3--3-3-0----------------------------------------------|
e-------------0---------------0----------------------------------------------|

LAST PART OF BRIDGE
e----------------------------------------------------------------------------|
b-4--4-4--4-4-----5----------------------------------------------------------|
g-4--4-4--4-4-0---5----------------------------------------------------------|
d-4--4-4--4-4-0---5----------------------------------------------------------|
a-2--2-2--2-2-0---3----------------------------------------------------------|
e-------------0--------------------------------------------------------------|

OUTRO
e----------------------------------------------------------------------------|
b----------------------------------------------------------------------------|
g--------2--2-0----------5-5-5-----------------------------------------------|
d-2--2-0-2--2-0---5--5-5-5-5-5-0---------------------------------------------|
a-2--2-0-0--0-0---5--5-5-3-3-3-0---------------------------------------------|
e-0--0-0------0---3--3-3-------0---------------------------------------------|

_____________________________________________________________________________

D7
_____________________________________________________________________________

TUNING:

Standard tuning

QUIET INTRO/QUIET VERSE
E5	     F6
-------------------------|I
-------------------------|I
-------------------------|I
------2-----------0------|I
---2-----------3-----3---|I
0--------0--1------------|I
let ring

QUIET CHORUS
A5	  A#6
------------------------I--------------------------|I
------------------------I------2-------------------|I
2-----2--2-0------0-----I2-----2--0--3--3--3--3-0--|I
2-----2--2-0-3--3----3--I2--2--2--0--3--3--3--3-0--|I
0--0--0--0-0-1----------I0-----0--0--1--1--1--1-0--|I
------------------------I--------------------------|I


the quiet part ends w/E5 chord:
--I
--I
--I
--I
2-I
0-I

HARD INTRO/VERSE
E5		 F5     G5     F5
----------------I------------------|I
----------------I------------------|I
----------------I------------------|I
2-2-2-2-2---2-2-I-3-3-3-5-5-5-3-3--|I
2-2-2-2-2---2-2-I-3-3-3-5-5-5-3-3--|I
0-0-0-0-0---0-0-I-1-1-1-3-3-3-1-1--|I

VARIATION OF HARD INTRO/VERSE (Played occasionally)
E5		 F5     G5     F5
0---0---0-------I------------------|I
0---0---0-------I------------------|I
X---X---X-------I------------------|I
2-2-2-2-2---2-2-I-3-3-3-5-5-5-3-3--|I
2-2-2-2-2---2-2-I-3-3-3-5-5-5-3-3--|I
0-0-0-0-0---0-0-I-1-1-1-3-3-3-1-1--|I

let ring--------I

HARD CHORUS
A5		 A#5	C5    A#5
----------------I------------------|I
----------------I------------------|I
2-2-2-2-2---2-2-I-3-3-3-5-5-5-3-3--|I
2-2-2-2-2---2-2-I-3-3-3-5-5-5-3-3--|I
0-0-0-0-0---0-0-I-1-1-1-3-3-3-1-1--|I
----------------I------------------|I

SOLO
II-----I-----I------I----------I------I-----I---I---------|II
II-----I-----I------I----------I------I-----I---I---------|II
II/9---I-----I-9----I-9\7--7p0-I-2/4--I-----I---I---X-0---|II Play twice
II-----I-----I------I----------I------I-----I---I---X-0II-|
II-----I-----I------I----------I------I-----I---I---------|II
II-----I-----I------I----------I------I-----I---I---------|II


------I------I------I------I------I------I------I-------|I
/12---I12----I12----I12----I12----I12----I12----I14b15--|I
/12---I12----I12----I12----I12----I12----I12----I14b15--|I
/12---I12----I12----I12----I12----I12----I12----I14b15--|I
------I------I------I------I------I------I------I-------|I
------I------I------I------I------I------I------I-------|I
Trem picking troughout

ENDING
----I-0-----|I
----I-0-----|I
----I-3p4---|I
2---I-------|I
2---I-------|I
0---I-------|I
let ring


_____________________________________________________________________________

Oh, The Guilt
_____________________________________________________________________________

TUNING:

Standard 1/2 step down

INTRO

(pick strings behind bridge a few times and add distortion)

RIFF 1

A5    G#5G#sus4
---------------|I
---------------|I
2-2-2----6-6---|I
2-2-2/6--6-6---|I
0-0-0/6--6-6---|I
-----/4--4-4---|I

RIFF 2
A5	    A5	   	A5	    A5	  G#5G#sus4
-----------I-----------I-----------I----------------|I
-----------I-----------I-----------I----------------|I
2-2-2------I2-2-2------I2-2-2------I2-2-2----6-6\---|I
2-2-2------I2-2-2------I2-2-2------I2-2-2/6--6-6\---|I
0-0-0------I0-0-0------I0-0-0------I0-0-0/6--6-6\---|I
-----------I-----------I-----------I-----/4--4-4\---|I

CHORUS
A5   G5 F#5	 C5	   E5G5G#5 A5   G5 F#5	    C5	       D5
----------------I-----------------I----------------I--------------------|I
----------------I-----------------I----------------I--------------------|I
----------------I-5-5-5-5-5-------I----------------I-5-5-5-5-5/7-7-7-0--|I
7-7-7-5-4-4-4-4-I-5-5-5-5-5-2-5-6-I7-7-7-5-4-4-4-4-I-5-5-5-5-5/7-7-7-0--|I
7-7-7-5-4-4-4-4-I-3-3-3-3-3-2-5-6-I7-7-7-5-4-4-4-4-I-3-3-3-3-3/5-5-5-0--|I
5-5-5-3-2-2-2-2-I-----------0-3-4-I5-5-5-3-2-2-2-2-I-----------------0--|I

SOLO:(pure improvisated anti-solo...)


ENDING:
-------|I
-------|I
-------|I
7-7-7--|I
7-7-7--|I
5-5-5--|I


_____________________________________________________________________________

Curmudgeon
_____________________________________________________________________________

TUNING:

Standard 1/2 step down

MAIN RIFF:INTRO/VERSES
A#
------------------|I
------------------|I
---------------7--|I
------------------|I
8b9--8b9---8------|I
6b7--6b7---6-0----|I

PRE-CHORUS
F#5		 C5
----------------I-----------------|I
----------------I-----------------|I
----------------I5-5-5-5-5-5-5----|I
4-4-4-4-4-4-4-0-I5-5-5-5-5-5-5-0--|I
4-4-4-4-4-4-4-0-I3-3-3-3-3-3-3-0--|I
2-2-2-2-2-2-2-0-I--------------0--|I

CHORUS
E5      D5
---------------------|I
--------3-----3------|I
--------2b3r2-2b3r2I-|
2---2----------------|I
2---2----------------|I
0---0----------------|I

SOLO:IMPROVISED ANTI-SOLO

When I play the song, I improvise it totally but with the phaser on it
sounds just like the real record. Try to imitate the rhythm on the
recording, play some barred figures high up the neck like this:

------------I-------18---|I
---13----12-I--14---18---|I
---13----12-I--14---18---|I
---13----12-I--14---18---|I
------------I------------|I
------------I------------|I


_____________________________________________________________________________

Return of the Rat
_____________________________________________________________________________

TUNING:

Standard down 1/2 step

INTRO

(pick strings behind bridge a few times and add distortion)

VERSE/INTRO

A5    C		    G5
----------------I------------------|I
----------------I------------------|I
----------------I------------------|I
------5-5-5-5-5-I------------------|I
7-7-7-3-3-3-3-3-I---5-5-5-5---5-6--|I
5-5-5-----------I-0-3-3-3-3-0-3-4--|I
PM__________________________________


CHORUS
B5    C5 A5     B5    C5 A5     B5    C5        A5
---------------I---------------I---------------I----------------|I
---------------I---------------I---------------I----------------|I
4-4-4-5--2-2---I4-4-4-5--2-2---I4-4-4-5--5-5---I-2--2--2-2-2-0--|Itwice
4-4-4-5--2-2-0-I4-4-4-5--2-2-0-I4-4-4-5--5-5-0-I-2--2--2-2-2-0--|I
2-2-2-3--0-0-0-I2-2-2-3--0-0-0-I2-2-2-3--3-3-0-I-0--0--0-0-0-0--|I
-------------0-I-------------0-I-------------0-I----------------|I

G5              C5		 D5
--------------I--------------I------------------|I
--------------I--------------I------------------|I
--------------I5--5--5-5-5-5-I-5/7-7-7-7-7-7-0--|I
5--5--5-5-5-5-I5--5--5-5-5-5-I-5/7-7-7-7-7-7-0--|I
5--5--5-5-5-5-I3--3--3-3-3-3-I-3/5-5-5-5-5-5-0--|I
3--3--3-3-3-3-I--------------I------------------|I

SOLO
-------I--------I-------I--------I-------I--------I-------I---------|I
-------I--------I-------I--------I-------I--------I-------I-----/13-|I
-------I--------I-------I--------I-------I--------I-------I---------|I
2/7----I--------I-------I--------I-------I--------I-------I---------|I
-------I--------I-------I--------I-------I--------I-------I---------|I
-------I--------I-------I--------I-------I--------I-------I---------|I
						   pick strings behind the bridge


-----------I-----------I------------I---------------|I
12--12--13-I-13--13-13-I-13--12--10-I--10--10\-/13--|I
-----------I-----------I------------I---------------|I
-----------I-----------I------------I---------------|I
-----------I-----------I------------I---------------|I
-----------I-----------I------------I---------------|I
high e string rings freely during this and the next 2 lines


--------------I---------------I--------------I--------------|I
13--12--12b13-I-12--12b13--12-I-12b13-12--10-I-10--10-------|I
--------------I---------------I--------------I--------------|I
--------------I---------------I--------------I--------------|I
--------------I---------------I--------------I--------------|I
--------------I---------------I--------------I--------------|I


----------I------------I----------I------------I----------I------------I----------I-------------|I
14--12----I------------I14--12----I------------I14--12----I------------I14--12----I-------------|I
--------12I12--11-12-11I--------12I12--11-12-11I--------12I12--11-12-11I--------12I12--11-12-11-|I
----------I------------I----------I------------I----------I------------I----------I-------------|I
----------I------------I----------I------------I----------I------------I----------I-------------|I
----------I------------I----------I------------I----------I------------I----------I-------------|I


----------I-----------I----------I-----------I----------I-----------I----------I------------|I
----------I-----------I----------I-----------I----------I-----------I----------I------------|I
----------I-----------I----------I-----------I----------I-----------I----------I------------|I
7--5------I-----------I7--5------I-----------I7--5------I-----------I7--5------I------------|I
-------7--I-6---5--3--I-------7--I-6---5--3--I-------7--I-6---5--3--I-------7--I-6---5--3---|I
----------I-----------I----------I-----------I----------I-----------I----------I------------|I

OUTRO
B5    D5         F#5
----------------I------------------|I
------3-3-3-3---I------------------|I
4-4-4-2-2-2-2-0-I------------------|I 4 times
4-4-4-0-0-0-0-0-I-4-4-4-4-4-4-4-0--|I
2-2-2---------0-I-4-4-4-4-4-4-4-0--|I
----------------I-2-2-2-2-2-2-2-0--|I

G5		 A5		   B5
----------------I-----------------I-----------------I------------------|I
----------------I-----------------I-----------------I------------------|I
----------------I-2-2-2-2-2-2-2-0-I-4-4-4-4-4-4-4-4-I-4----------------|I
5-5-5-5-5-5-5-5-I-2-2-2-2-2-2-2-0-I-4-4-4-4-4-4-4-4-I-4----------------|I
5-5-5-5-5-5-5-5-I-0-0-0-0-0-0-0-0-I-2-2-2-2-2-2-2-2-I-2---------(X)----|I
3-3-3-3-3-3-3-3-I-----------------I-----------------I------------------|I


_____________________________________________________________________________

Smells Like Teen Spirit
_____________________________________________________________________________

TUNING:

Normal tuning

INTRO
e----------------------------------------------------------------------------|
b-----------------------------------x-x-x-x----------------------x-x-x-x-----|
g----------x-0-x--3--3--00----------x-x-x-x--6--6-6--0-0---------x-x-x-x-----|
d--3--3-3--x-0-x--3--3--00---6--6-6-x-x-x-x--6--6-6--0-0--3--3-3 x-x-x-x-----|
a--3--3-3--x-0-x--1--1--00---6--6-6-x-x-x-x--4--4-4--0-0--3--3-3 x-x-x-x-----|
e--1--1-1--------------------4--4-4-x-x-x-x---------------1--1-1 x-x-x-x-----|

e----------------------------------------------------------------------------|
b----------------------x-x-x-x-----------------------------------------------|
g--3--3-3--0-0---------x-x-x-x-----------------------------------------------|
d--3--3-3--0-0--6--6-6-x-x-x-x-----------------------------------------------|
a--1--1-1--0-0--6--6-6-x-x-x-x-----------------------------------------------|
e---------------4--4-4-x-x-x-x-----------------------------------------------|

with distortion
e----------------------------------------------------------------------------|
b------------------x-x-x-x-------------------x-x-x-x-------------------------|
g--6--6------------x-x-x-x--3--3-------------x-x-x-x--6--6-------------------|
d--6--6--0--3--3-3-x-x-x-x--3--3---0--6--6-6-x-x-x-x--6--6--0----------------|
a--4--4--0--3--3-3-x-x-x-x--1--1---0--6--6-6-x-x-x-x--4--4--0----------------|
e--------0--1--1-1-x-x-x-x---------0--4--4-4-x-x-x-x--------0----------------|

then
e----------------------------------------------------------------------------|
b---------x-x-x-x------------------x-x-x-x-----------------------------------|
g---------x-x-x-x--3--3------------x-x-x-x--6--6-----------------------------|
d--3--3-3-x-x-x-x--3--3--0--6--6-6-x-x-x-x--6--6---0-------------------------|
a--3--3-3-x-x-x-x--1--1--0--6--6-6-x-x-x-x--4--4---0-------------------------|
e--1--1-1-x-x-x-x--------0--4--4-4-x-x-x-x---------0-------------------------|
play that 3 times

VERSE
e----------------------------------------------------------------------------|
b-----6----------6----------6----------6----------6----------6---------------|
g--5----------5----------5----------5----------5----------5------------------|
d----------------------------------------------------------------------------|
a----------------------------------------------------------------------------|
e----------------------------------------------------------------------------|

PRE-CHORUS
e----------------------------------------------------------------------------|
b----6---6---6---6---6---6---6---6---6---6---6---6---6---6---6---------------|
g--5---5---5---5---5---5---5---5---5---5---5---5---5---5---5---5-------------|
d-------------------------------------------------------------------0--------|
a-------------------------------------------------------------------0--------|
e-------------------------------------------------------------------0--------|

CHORUS
e----------------------------------------------------------------------------|
b---------x-x-x-x------------------x-x-x-x-----------------------------------|
g---------x-x-x-x--3--3------------x-x-x-x--6--6-----------------------------|
d--3--3-3-x-x-x-x--3--3--0--6--6-6-x-x-x-x--6--6---0-------------------------|
a--3--3-3-x-x-x-x--1--1--0--6--6-6-x-x-x-x--4--4---0-------------------------|
e--1--1-1-x-x-x-x--------0--4--4-4-x-x-x-x---------0-------------------------|

play that 6 times, then
e-----------------------------------------------------------------------------|
b-----------------)-------------------------------------)---------------------|
g----------------3-------------------------------------3----------------------|
d-----------------------------------------------------------------------------|
a--3--2--3--4-4-----3--2--3--/8-8--6--5--3--2--3--4-4-----3--2--3--/8-8--6--5-|
e--1--0--1--2-2-----1--0--1--/6-6--4--3--1--0--1--2-2-----1--0--1--/6-6--4--3-|

SOLO
e----------------------------------------------------------------------------|
b------------------------)---------------------------------------------------|
g-------8--10--------8--8-----6--5--6--5---------------)---------------------|
d--10------------6---------------------------8--6--8--8----6--5--------------|
a----------------------------------------------------------------------------|
e----------------------------------------------------------------------------|

play that 2 times, then
e----------------------------------------------------------------------------|
e----------------------------------------------------------------------------|
b----------------------------------------------------------------------------|
g----------------------------------------------------------------------------|
d--6--5---6--5---6--5---6-(5)-5\3---6--5---6--5---6--5---6-(5)-5\3-----------|
a----------------------------------------------------------------------------|
e----------------------------------------------------------------------------|
play that 4 times

END
e----------------------------------------------------------------------------|
b----------------------------------------------------------------------------|
g----------------------------------------------------------------------------|
d--3-------------------------------------------------------------------------|
a--3-------------------------------------------------------------------------|
e--1-------------------------------------------------------------------------|


_____________________________________________________________________________

Rape Me
_____________________________________________________________________________

TUNING:

Standard dropped down 1/2 step

e-----------------------------0---0--0---------------------------------------|
b-----------------------------0---0--0---3-3---3-3---------------------------|
g--2---2--2---5-5---5-5-0-0--------------0-0---0-0-0-0-----------------------|
d--2---2--2-0-5-5---5-5-0-0---2---2--2-0-0-0---0-0-0-0-----------------------|
a--0---0--0-0-3-3---3-3-0-0---2---2--2-0-----------0-0-----------------------|
e-----------0-----------0-0---0---0--0-0-3-3---3-3-0-0-----------------------|


_____________________________________________________________________________

Rape Me
_____________________________________________________________________________

TUNING:

Standard down 1/2 step

INTRO/CHORUS/2nd and 3rd VERSES
e-----------------------------0---0--0---------------------------------------|
b-----------------------------0---0--0---3-3---3-3---------------------------|
g--2---2--2---5-5---5-5-0-0--------------0-0---0-0-0-0-----------------------|
d--2---2--2-0-5-5---5-5-0-0---2---2--2-0-0-0---0-0-0-0-----------------------|
a--0---0--0-0-3-3---3-3-0-0---2---2--2-0-----------0-0-----------------------|
e-----------0-----------0-0---0---0--0-0-3-3---3-3-0-0-----------------------|

1ST VERSE
e----------------------------------------------------------------------------|
b----------------------------------------------------------------------------|
g----2-----5-----------------------------------------------------------------|
d----2---5-5-0-----2------5--------------------------------------------------|
a-0---0-3----0-----2----5-5-0------------------------------------------------|
e----------------0--0-3-----0------------------------------------------------|

3 times, then...
e----------------------------------------------------------------------------|
b---------------------3-3-3-3------------------------------------------------|
g----2-----5----------0-0-0-0------------------------------------------------|
d----2---5-5-0-----2--0-0-0-0------------------------------------------------|
a-0---0-3----0-----2---------------------------------------------------------|
e----------------0--0-3-3-3-3------------------------------------------------|
		    w/dist.

BRIDGE
e----------------------------------------------------------------------------|
b----------------------------------------------------------------------------|
g-6-6-6-6-6-6-6-6------------------------------------------------------------|
d-6-6-6-6-6-6-6-6---7-7-7-7-5-4-3--------------------------------------------|
a-4-4-4-4-4-4-4-4---7-7-7-7-5-4-3--------------------------------------------|
e-------------------5-5-5-5-3-2-1-0------------------------------------------|

4 times, then...
e----------------------------------------0-----------------------------------|
b------------------------------------------0---------------------------------|
g-----------------------------------9----------------------------------------|
d-3--3-3---3-3-3---3/5--5-5--5-5-0--9----------------------------------------|
a-3--3-3---3-3-3---3/5--5-5--5-5-0--7----------------------------------------|
e-1--1-1---1-1-1---1/3--3-3--3-3-0--0----------------------------------------|

OUTRO CHORUS RIFF (second guitar)
e----------------------------------------------------------------------------|
b----------------------------------------------------------------------------|
g-2---2-2-5-5-5-7---9---9----------------------------------------------------|
d-2---2-2-5-5-5-7---9---9----------------------------------------------------|
a-0---0-0-3-3-3-5---7---7-0---5-3-2------------------------------------------|
e-------------------0---0-0-3------------------------------------------------|


_____________________________________________________________________________

Scentless Apprentice
_____________________________________________________________________________

TUNING:
Drop D tuned down 1/2 step

MAIN RIFF
e----------------------------------------------------------------------------|
b----------------------------------------------------------------------------|
g----------------------------------------------------------------------------|
d-4--4--X-4--0-4-4-4-4-X-4--0------------------------------------------------|
a-4--4--X-4--0-4-4-4-4-X-4--0------------------------------------------------|
e-4--4--X-4--0-4-4-4-4-X-4--0------------------------------------------------|


_____________________________________________________________________________

Heart-Shaped Box
_____________________________________________________________________________

TUNING:

Drop D 1/2 step down


INTRO/VERSE
e----------------------------------------------------------------------------|
b----------------------------------------------------------------------------|
g-----2------------------------------2---------------------------------------|
d---2---2-----3----------0-------2-2---2-----3------/4-4---4----0------------|
a-0---------3---3----0-------0---0---------3---3-------------3-3-------------|
e---------3--------0---0---0---0---------3--------0------0-------------------|

LAST TIME BEFORE CHORUS
e----------------------------------------------------------------------------|
b----------------------------------------------------------------------------|
g-----2------------------------------2---------------------------------------|
d---2---2-----3----------0---------2---2-----3------4-4-4-4-4---0------------|
a-0---------3---3----0-------0---0---------3---3--------------3-0------------|
e---------3--------0---0---0---0---------3--------0--------------------------|
						w/dist.
CHORUS (3 times)
e----------------------------------------------------------------------------|
b----------------------------------------------------------------------------|
g-2-2-4b5-----4b5------------*-4b5-------------------------------------------|
d-2-2-----3-3--------4-4-4-4-------------------------------------------------|
a-0-0-----3-3----------------3-----------------------------------------------|
e---------3-3------0---------------------------------------------------------|
		let ring

LAST PART OF CHORUS
e----------------------------------------------------------------------------|
b----------------------------------------------------------------------------|
g--------------------------4b5=5=5r4----------------------------------0------|
d-3-3-3-3-3-3-3-3---0-----------------3-3-3-3-3-3-3-3-----4-4-4-4-----0------|
a-3-3-3-3-3-3-3-3---0-----------------3-3-3-3-3-3-3-3-------------3-3-0------|
e-3-3-3-3-3-3-3-3---0-----------------3-3-3-3-3-3-3-3---0--------------------|

SOLO
e----------------------------------------------------------------------------|
b------8b10r8\6-----6b8r6\5--------5b6-r5-3-1-0------------------------------|
g----------------------------------------------------------------------------|
d-7-7-----------5-5------------3-3-------------------------------------------|
a----------------------------------------------------------------------------|
e----------------------------------------------------------------------------|
w/chorus

e----------------------------------------------------------------------------|
b----------------------------------------------------------------------------|
g-------------------------2--------------------------------------------------|
d-2-----------------------2--------------------------------------------------|
a-0-----------------------0--------------------------------------------------|
e----------------------------------------------------------------------------|
	                dist. off          (chorus off for 3rd verse)

ENDING OF LAST CHORUS
e----------------------------------------------------------------------------|
b----------------------------------------------------------------------------|
g--------------------------4b5=5=5r4-----------------------------------------|
d-3-3-3-3-3-3-3-3---0--------------------------------------------------------|
a-3-3-3-3-3-3-3-3---0--------------------------------------------------------|
e-3-3-3-3-3-3-3-3---0--------------------------------------------------------|

e----------------------------------------------------------------------------|
b----------------------------------------------------------------------------|
g----------------------------------------------------------------------------|
d-3-3-3-3-3-3-3-3-----4-4-4-4------------------------------------------------|
a-3-3-3-3-3-3-3-3-------------3-3-3------------------------------------------|
e-3-3-3-3-3-3-3-3---0--------------------------------------------------------|


_____________________________________________________________________________

I Hate Myself And Want To Die
_____________________________________________________________________________

TUNING:
DROP-D (Dropped down 1/2 step)


INTRO:

INTRO/VERSE
C5	  E5    D#5 E5  C5	   E5	D#5 D5
-----------------------I------------------------|I
-----------------------I------------------------|I
5---5--5-0-------------I5---5--5-0--------------|I
5---5--5-0-2--2--1--2--I5---5--5-0-2--2--1--0---|I
3---3--3-0-2--2--1--2--I3---3--3-0-2--2--1--0---|I
---------0-2--2--1--2--I---------0-2--2--1--0---|I

CHORUS
G5	A#5
---------------------|II
---------------------|II
--------3--3--3------|II
5---5---3--3--3--0---|II 7 times
5---5---1--1--1--0---|II
5---5------------0---|II

LAST REPEAT OF CHORUS
G5	A#5	B5
---------------------|I
---------------------|I
--------3--3--3--4---|I
5---5---3--3--3--4---|I
5---5---1--1--1--2---|I
5---5----------------|I

INTERLUDE (quite highly improvised)
Gtr.1 (right speaker, clean)
----------------I----------------I-----3-5-6--5-6-I8--6--5--0-------|I
0---------------I0---------------I0---------------I-----------------|I
0---------------I0---------------I0---------------I-----------------|I
----------------I----------------I----------------I-----------------|I
3---------------I3---------------I3---------------I-----------------|I
----------------I----------------I----------------I-----------------|I
Gtr.2 (left speaker, distortion)
----------------I----------------I----------------I-----------------|I
----------------I----------------I----------------I-----------------|I
----------------I----------------I----------------I-----------------|I
----------------I----5---4---3---I2---------------I-----------------|I
--------2---3---I5---------------I----------------I-----------------|I
2--4/5----------I----------------I----------------I-----------------|I

Gtr.1
---0-2-3--2-3-I5--5-3-5b6-5-3I2--3-2-0--0-1-I0--------------|I
--------------I--------------I--------------I----3-2-0------|I
--------------I--------------I--------------I---------------|I
--------------I--------------I--------------I---------------|I
--------------I--------------I--------------I---------------|I
--------------I--------------I--------------I---------------|I
Gtr.2
--------------I--------------I--------------I---------------|I
--------------I--------------I--------------I---------------|I
--------------I--------------I--------------I---------------|I
---3-2-0-2----I--------------I--------------I---------------|I
------------1-I--0-----------I--------------I---------------|I
--------------I-----5--3--2--I--------------I---------------|I

ENDING

C5	  E5    D#5 D5
------------------------|I
------------------------|I
5---5--5-0--------------|I
5---5--5-0-2--2--1--0---|I
3---3--3-0-2--2--1--0---|I
---------0-2--2--1--0---|I

_____________________________________________________________________________

Milk It
_____________________________________________________________________________

TUNING:

Standard down 1/2 step

CHORUS/INTRO
e----------------------------------------------------------------------------|
b----------------------------------------------------------------------------|
g-------9-9--------------------------------9-9-------------------------------|
d-8-8-8-9-9-5-5-----5-5-5-6-6---2----8-8-8-9-9-5-5-----5---------------------|
a-8-8-8-7-7-5-5-----5-5-5-6-6---2-0--8-8-8-7-7-5-5-----5---------------------|
e-6-6-6-----3-3-0---3-3-3-4-4-0-0-0--6-6-6-----3-3-0---3---------------------|

e----------------------------------------------------------------------------|
b----------------------------------------------------------------------------|
g-------9-9------------------------------------------------------------------|
d-8-8-8-9-9-5-5--------------------------------------------------------------|
a-8-8-8-7-7-5-5--------------------------------------------------------------|
e-6-6-6-----3-3-0---3--3-4-4b-0-0-0------------------------------------------|

CHORUS
e----------------------------------------------------------------------------|
b----------------------------------------------------------------------------|
g-------9-9------------------------------------------------------------------|
d-8-8-8-9-9-5-5-----5-5-5-6-6---2--------------------------------------------|
a-8-8-8-7-7-5-5-----5-5-5-6-6---2-0------------------------------------------|
e-6-6-6-----3-3-0---3-3-3-4-4-0-0-0------------------------------------------|

PRE-VERSE RIFF
e-------------------------------3--------------------------------------------|
b----------------------------------------------------------------------------|
g----------------------------3-----------------------------------------------|
d----------------------------------------------------------------------------|
a----------------------------------------------------------------------------|
e-6-6-6-6-6-6-6-6---0-0-0-0--------------------------------------------------|

VERSE
e----------------------------------------------------------------------------|
b----------------------------------------------------------------------------|
g----------------------------------------------------------------------------|
d----------------------------------------------------------------------------|
a----------------------------------------------------------------------------|
e-6-6-6-6-6-6-6-6---0-0-0-0-0-0-0-0------------------------------------------|


_____________________________________________________________________________

Moist Vagina
_____________________________________________________________________________

TUNING:

Standard, 1/2 step down

INTRO

E5  F#5  E5  F#5  E5  F#5  E5  F#5
--------I--------I--------I---------|I
--------I--------I--------I---------|I
--------I--------I--------I---------|I
--------I-------4I--------I-------4-|I
--------I--------I--------I---------|I
0---2---I0---2---I0---2---I0---2----|I
PM_____________       PM_________
let ring


VERSE RIFF

E5  F#5  E5  F#5  E5  F#5  E5  F#5  A5		      C
------2-I------2-I------2-I--------I-----------------I------------------|I
------0-I------0-I------0-I--------I-----------------I-5-5-5-5-5-5-5----|I
--------I--------I--------I-------0I-2-2-2-2-2-2-2-0-I-5-5-5-5-5-5-5-0--|I
--------I--------I--------I-------0I-2-2-2-2-2-2-2-0-I-5-5-5-5-5-5-5-0--|I
--------I--------I--------I-------0I-0-0-0-0-0-0-0-0-I-3-3-3-3-3-3-3-0--|I
0---2---I0---2---I0---2---I0---2---I-----------------I------------------|I


CHORUS
E5  F#5
------------|I
------------|I
------------|I
2---4-------|I
2---4-------|I
0---2-------|?*I

_____________________________________________________________________________

Gallons of Rubbing Alcohol Flow Through The Strip
_____________________________________________________________________________

TUNING:

e----------------------------------------------------------------------------|
b----------------------------------------------------------------------------|
g----------------------------------------------------------------------------|
d----------------------------------------------------------------------------|
a----------------------------------------------------------------------------|
e----------------------------------------------------------------------------|


_____________________________________________________________________________

The Other Improv
_____________________________________________________________________________

TUNING:

e----------------------------------------------------------------------------|
b----------------------------------------------------------------------------|
g----------------------------------------------------------------------------|
d----------------------------------------------------------------------------|
a----------------------------------------------------------------------------|
e----------------------------------------------------------------------------|


_____________________________________________________________________________

Serve The Servants
_____________________________________________________________________________

TUNING:

Tune down 1/2 step

VERSE
e--------------------------------------------------0--0----------0--0--------|
b--------------------------------3-----------------0--0----------0--0--------|
g-----------2-----2----------------------------------------------------------|
d--------1-----------0--2--2--2-----2--2-----4------------4------------2--0--|
a--2--2--------2-----------------------------4------------4--2---------2--0--|
e-----------------------------------------0--2--2------------0--0------------|

CHORUS
e-----------------------------------------------0----------------------------|
b--------------------0--6--6--6--6--------------0-----0--6--6--6--6--6-------|
g--------------------0--6--6--6--6--------------------0--6--6--6--6--6-------|
d--7-----7--7--7--7--0--6--6--6--6--7--7--7--7-----7--0--6--6--6--6--6-------|
a--7--7--7--7--7--7-----4--4--4--4--7--7--7--------7-----4--4--4--4--4-------|
e--5--5--5--5--5--5--------4--4--4--5--5--5--------5--------4--4--4--4-------|

e--------------0--------------------------------------0----------------------|
b--------------0-----0--6--6--6--6--6--6--------------0--6--6--6--6--6--6----|
g--------------------0--6--6--6--6--6--6-----------------6--6--6--6--6--6----|
d--7--7--7--------7--0--6--6--6--6--6--6--7--7--7--------6--6--6--6--6--6----|
a--7--7--7--7-----7-----4--4--4--4--4--4--7--7--7--7-----4--4--4--4--4--4----|
e--5--5--5--------5--------4--4-----------5--5--5-----------------4--4--4----|

e----------------------------------------------------------------------------|
b-----------------------------------5--5--5--x--x--x--5--5--5----------------|
g-----------------------------------5--5--5--x--x--x--5--5--5----------------|
d--4--4--4--4--4--4--4--4--4--------5--5--5--x--x--x--5--5--5----------------|
a--4--4--4--4--4--4--4--4--4--------3--3--3--x--x--x--3--3--3----------------|
e--2--2--2--2--2--2--2--2--2--3--3-----------x--x--x-------------------------|


e-------------13-------------------------------------------------------------|
b--11----x/--------x/--------------------------------------------------------|
g--11----x/--------x/--------------------------------------------------------|
d--10----x/--------x/--------------------------------------------------------|
a--9-----x/------------------------------------------------------------------|
e----------------------------------------------------------------------------|

_____________________________________________________________________________

Very Ape
_____________________________________________________________________________

TUNING:

Standard dropped down 1/2 step

MAIN RIFF
e----------------------------------------------------------------------------|
b----------------------------------------------------------------------------|
g----------------------------------------------------------------------------|
d-5/----7-7-X-5/8-8-X-5/-----------------------------------------------------|
a-5/----7-7-X-5/8-8-X-5/-----------------------------------------------------|
e-3/----5-5-X-3/6-6-X-3/-----------------------------------------------------|

VERSE ENDING:
e----------------------------------------------------------------------------|
b----------------------------------------------------------------------------|
g----------------------------------------------------------------------------|
d---7-7-X-5/8-8-8-0----------------------------------------------------------|
a---7-7-X-5/8-8-8-0----------------------------------------------------------|
e---5-5-X-3/6-6-6-0----------------------------------------------------------|

e----------------------------------------------------------------------------|
b----------------------------------------------------------------------------|
g----------------------------------------------------------------------------|
d-5--5-5--5-5-5--3-3-3-3-8-7-6-5---------------------------------------------|
a-5--5-5--5-5-5--3-3-3-3-8-7-6-5---------------------------------------------|
e-3--3-3--3-3-3--1-1-1-1-6-5-4-3---------------------------------------------|

VARIATION OF MAIN RIFF BEFORE CHORUS
e----------------------------------------------------------------------------|
b----------------------------------------------------------------------------|
g----------------------------------------------------------------------------|
d--7---7-5/8---8-5/----------------------------------------------------------|
a--7---7-5/8---8-5/----------------------------------------------------------|
e--5---5-3/6---6-3/----------------------------------------------------------|

CHORUS
e----------------------------------------------------------------------------|
b----------------------------------------------------------------------------|
g-----5-8--8---/12--12-------------------------------------------------------|
d-7---5-8--8---/12--12--5-5-5-5----------------------------------------------|
a-7---3-6--6---/10--10--5-5-5-5----------------------------------------------|
e-5---------------------3-3-3-3----------------------------------------------|


_____________________________________________________________________________

Pennyroyal Tea
_____________________________________________________________________________

TUNING:

Standard dropped down 1/2 step

VERSE
e--0----0----0-----0----0----0----------3----3----------3--------------------|
b--1--1-1--1-1-1---1--1-1--1-1-----0--0-0--0-0-0---0--0-0--------------------|
g--2--2-2--2-2-2---2--2-2--2-2-0---0--0-0--0-0-0---0--0-0--------------------|
d--2--2-2--2-2-2---2--2-2--2-2-0---0--0-0--0-0-0---0--0-0--------------------|
a--0--0-0--0-0-0---0--0-0--0-0-0---------------------------------------------|
e----------------------------------3--3-3--3-3-3---3--3-3-3-2-3-0------------|

e--0----0----0-----0----0----0----------3----3-------------------------------|
b--1--1-1--1-1-1---1--1-1--1-1-----0--0-0--0-0-0-----------------------------|
g--2--2-2--2-2-2---2--2-2--2-2-0---0--0-0--0-0-0------0-0-0-0-0-0-0----------|
d--2--2-2--2-2-2---2--2-2--2-2-0---0--0-0--0-0-0------0-0-0-0-0-0-0----------|
a--0--0-0--0-0-0---0--0-0--0-0-0---------------------------------------------|
e----------------------------------3--3-3--3-3-3---3-3-3-3-3-3-3-0-----------|
							w/dist.

CHORUS
e----------------------------------------------------------------------------|
b--5--5-5-5-5-5-5--/7--7-7-7-7-7-0-------------------------------------------|
g--5--5-5-5-5-5-5--/7--7-7-7-7-7-0---3-3-3-3-3-3-3-3---3-3-3-3-3-3-3-0-------|
d--5--5-5-5-5-5-5--/7--7-7-7-7-7-0---3-3-3-3-3-3-3-3---3-3-3-3-3-3-3-0-------|
a--3--3-3-3-3-3-3--/5--5-5-5-5-5-0---1-1-1-1-1-1-1-1---1-1-1-1-1-1-1-0-------|
e--------------------------------0-------------------------------------------|


_____________________________________________________________________________

Marigold
_____________________________________________________________________________

Tuning:Standard, half a step down

*The song is mostly played with chords on the strings E-G
and the strings B and E ring out quite randomly over the chords


INTRO
E5   C#5      B5   C5
------------I---------------|I
------------I---------------|I
9-9--6----6\I-4-4--5----5/I-|
9-9--6----6\I-4-4--5----5/I-|
7-7--4----4\I-2-2--3----3/I-|
------------I---------------|I

VERSE

E5   C#m7    Bsus4 Cmaj7
--0-------0-I-----------0--|I
--0----0--0-I---0--0--0-0--|I
9-9--6------I-4-4--5----5--|I
9-9--6------I-4-4--5----5--|I
7-7--4------I-2-2--3-------|I
------------I--------------|I
let ring

CHORUS
G		 A		  E5		    C#m7	     Cmaj7
----------------I------0---------I-------0---------I-------0---------I-------0---------I-------0-0-0-0-0--|I
----------------I------0---------I-------0---------I-------0---------I-------0---------I-------0-0-0-0-0--|I
4-4-4-4-4-4-4-4-I6-6-6-6-6-6-6-0-I-9-9-9-9-9-9-9-9-I-6-6-6-6-6-6-6-6-I-5-5-5-5-5-5-5-5-I-5-5-5-5-5-5-5-5--|I
5-5-5-5-5-5-5-5-I7-7-7-7-7-7-7-0-I-9-9-9-9-9-9-9-9-I-6-6-6-6-6-6-6-6-I-5-5-5-5-5-5-5-5-I-5-5-5-5-5-5-5-5--|I
5-5-5-5-5-5-5-5-I7-7-7-7-7-7-7---I-7-7-7-7-7-7-7-7-I-4-4-4-4-4-4-4-4-I-3-3-3-3-3-3-3-3-I-3-3-3-3-3-3-3-3--|I
3-3-3-3-3-3-3-3-I5-5-5-5-5-5-5---I-----------------I-----------------I-----------------I------------------|I
let ring


ENDING
E5
0-
0-
9-
9-
7-
--


_____________________________________________________________________________

Sappy
_____________________________________________________________________________

TUNING:

Standard tuning dropped down 1/2 step

VERSES
D5		A#5    G5	A5		A#5	  C5
--------------I----------3-3---I---------------I-----------------|I
3--3-3--3-3-0-I--------3-3-3---I---------------I-----------------|I
2--2-2--2-2-0-I-3--3-0-0-0-0-0-I-2--2-2--2-2-0-I-3--3-3-3-5-5-0--|I
0--0-0--0-0-0-I-3--3-0-0-0-0-0-I-2--2-2--2-2-0-I-3--3-3-3-5-5-0--|I
------------0-I-1--1-0-------0-I-0--0-0--0-0-0-I-1--1-1-1-3-3-0--|I
--------------I------0-3-3-3-0-I---------------I-----------------|I

CHORUS
D5
---------------|I
3--3-3--3-3-0--|I
2--2-2--2-2-0--|I
0--0-0--0-0-0--|I
---------------|I
---------------|I

A#5		G5
--------------I-3--3-3--3-3-----|I
--------------I-3--3-3--3-3-----|I
3--3-3--3-3---I-0--0-0--0-0-----|I
3--3-3--3-3-0-I-0--0-0--0-0--0--|I 3 times
1--1-1--1-1-0-I--------------0--|I
------------0-I-3--3-3--3-3--0--|I

--------------I--------------I---------------|I
--------------I--------------I---------------|I
3--3-3--3-3-0-I-2------------I---------------|I
3--3-3--3-3-0-I-2------------I---------------|I
1--1-1--1-1-0-I-0------------I---------------|I
--------------I--------------I---------------|I

SOLO

-------------------I-------------------------|I
-------------------I-------------------------|I
-------------------I-------------------------|I
----------------10-I10-12-12-12/14-14-14-14--|I
----8-10-12--12----I-------------------------|I
8-10---------------I-------------------------|I

----------------------I--------------------------|I
----------------------I--------------------------|I
----------------------I--------------------------|I
-14b15--14---14-12-14-I-14b15==15-15-15-r14-12-\-|I
----------------------I--------------------------|I
----------------------I--------------------------|I

---------------I-------------------I----------------I-----------------------|I
---------------I-------------------I----------------I-----------------------|I
---------------I-------------------I----------------I-----------------------|I
---------------I-------------------I----------------I-----------------------|I
---------------I-------------------I----------------I-----------------------|I
7-8-8-7-7-5-3--I-3-1-3-3b5-3-1-1-1-I1-3-3-3-5-5-5-7-I-7-8-8-10-10-12-12-12--|I

-------------------------I------------------------|I
-------------------------I------------------------|I
-------------------------I------------------------|I
-------------------------I----------15--17-17-15--|I
------------12--14-14-15-I-15-17-17---------------|I
12b13-12-10--------------I------------------------|I

----------------------------I--------------------------|I
----------------------------I--------------------------|I
----------------------------I--------------------------|I
-17b19--17-17-15--12---12-14I14b15==15r14-14-12-12-12--|I
----------------------------I--------------------------|I
----------------------------I--------------------------|I

--------------------I-------------------------------I------------------------I-----------------|I
--------------------I-------------------------------I------------------------I-----------------|I
--------------------I-------------------------------I------------------------I-----------------|I
12--12-12--12-12-14-I-14-15-15-14-14h15p14-12-12-12-I12-14-14-14-12-12-12-10-I-10-9-9-7-7-5-5\-|I
--------------------I-------------------------------I------------------------I-----------------|I
--------------------I-------------------------------I------------------------I-----------------|I

I omitted most of the obvious fingerslides. something like bars 4-8...he just slides it with
practically one finger..


_____________________________________________________________________________

Jesus Doesn't Want Me For A Sunbeam
_____________________________________________________________________________

TUNING:

Tune down 1/2 step

INTRO
e--0---0--0--0--0--0---0---0--0--0-------------------------------------------|
b--0---0--0--0--0--3---3---3--3--0--------2--2--3--2-----2---2--3--0---------|
g--1---1--1--1--0--2---2---2--2--0-----2-----2--2--2-----2---2--2--0---------|
d--2---------2--0--0---0------0--0--2--------2--2--2-----2---2--2--0---------|
a--2---------2--0----------------0--0-----------------0----------------------|
e--0---------0---------------------------------------------------------------|

e--------------------0--0---0--0---------------------------------------------|
b-----0---------0----3--3---3--0--2---2--------2---2-------------------------|
g-----1---------1----2--2---2-----2------2--2--2---2--2--2-------------------|
d-----2--------------0--0---0-----2-------------------------2--0-------------|
a--2------------------------------0------------------------------------------|
e--0-------0-----------------------------------------------------------------|

VERSE
e----------------------------------------------------------------------------|
b--------------------------3---3----------------------2----------------------|
g--------------------2--2--2---2----0------2----2--2--2-------2--------2-----|
d--------------------0--0--------0-----2-----2--------------2----------2-----|
a--------2-------0---------------------0-----------------0-------0--0----0---|
e--0---0---0--0--------------------------------------------------------------|

e----------------------------------------------------------------------------|
b------------------3-----3-------------------------3--2----------------------|
g------------------2-----2---2---0--------2--------2--2----2--------2--------|
d------------------0--0--------0--------2-------2-----2----2--------2--------|
a---------------0--------------------0-------0-----------0----0--0-----0-----|
e--0---0--0--0---------------------------------------------------------------|

e----------------------------------------------------------------------------|
b----------------------------3--------------------2--------------2-----------|
g----------------------2--2--2-------2------------2-----2--------2------2----|
d-------------------0--0-------0--0--0--0--2---2--------2--2--2---------2----|
a----------------2----------------------0--0---------0-----0-------0--0---0--|
e--0---0--0--0---------------------------------------------------------------|

e----------------------------------------------------------------------------|
b--------------------------3------------------2--------3^2--2-----------2--0-|
g--------------------2-----2---2---0----------2--------2----2--2--2--2--2--0-|
d----------------0------0--------0-----2---2--------2-------2--2--2--2--2--0-|
a-------2------------------------------0---------0-------------0--0--0--0----|
e--0--0----0--0--------------------------------------------------------------|

CHORUS
e--0---0--0---0--0--0--0---0--0---0--0---------------------------------------|
b--0---0--0---0--0--0--3---3--3---3--3--0------------------------------------|
g--x---x--x---x--x--0--2---2--2---2--2--0------------------------------------|
d--2---2--2---2--2--0--0---0--0---0--0--0------------------------------------|
a--2---2--2---2--2----------------------0------------------------------------|
e--0---0--0---0--0-----------------------------------------------------------|

play that 3 times, then
e--0---0--0---0--0---0---0--0---0--0-----------------------------------------|
b--2---2--2---2--3---2---2--2---2--2--0--------------------------------------|
g--2---2--2---2--2---2---2--2---2--2--0--------------------------------------|
d--2---2--2---2--2---2---2--2---2--2--0--------------------------------------|
a--0---0--0---0--0---0---0--0---0--0--0--------------------------------------|
e----------------------------------------------------------------------------|


_____________________________________________________________________________

Do Re Mi
_____________________________________________________________________________

TUNING:

Standard full step down

VERSE

   E5               G#5              C#5              F#5
e----------------------------------------------------------------------|
b--9-----9-9-9-9---------------------------6---------------------------|
g--9---x-9-9-9-9----------6----------6---x-6-6-6-6----------4----------|
d--9---x-9-9-9-9-0--6---x-6-6-6-6-0--6---x-6-6-6-6-0--4---x-4-4-4-4-0--|
a--7---x-7-7-7-7-0--6---x-6-6-6-6-0--4---x-4-4-4-4-0--4---x-4-4-4-4-0--|
e----------------0--4---x-4-4-4-4-0----------------0--2---x-2-2-2-2-0--|

PRE CHORUS

   B5                       A5 C#5 C5
e------------------------------------|
b------------------------------------|
g--4---x-4-4---x-4--4---x-4-2---6-5--|
d--4---x-4-4---x-4--4---x-4-2-0-6-5--|
a--2---x-2-2---x-2--2---x-2-0-0-4-3--|
e------------------------------------|

    F#5                              E                 D5
e----------------------------------------------------------------------|
b------------------------------------9---------------------------------|
g------------------------------------9------------------7-7-7-7-7-7----|
d--4---x-4-4---x-4--4---x-4---4-4-0--9------------------7-7-7-7-7-7-0--|
a--4---x-4-4---x-4--4---x-4---4-4-0--7------------------5-5-5-5-5-5-0--|
e--2---x-2-2---x-2--2---x-2---2-2-0---------------------------------0--|

CHORUS
G#                  E
e------------------------------------|
b-------------------9---x-9-9-9-9----|
g-------------------9---x-9-9-9-9----|
d--6---x-6-6-6-6-0--9---x-9-9-9-9-0--|
a--6---x-6-6-6-6-0--7---x-7-7-7-7-0--|
e--4---x-4-4-4-4-0----------------0--|

POSTCHORUS
e-------------------|
b-------------------|
g-------------------|
d--2-1--------------|
a------4-2-0--------|
e------------4-2-0--|


_____________________________________________________________________________

You Know You're Right
_____________________________________________________________________________

TUNING:

Standard 1/2 step down

INTRO/VERSE
e----------------------------------------------------------------------------|
b----------------------------------------------------------------------------|
g----------------------------------------------------------------------------|
d--------------4-------------------------------------------------------------|
a-----4---4-------4-----4----4-----4---4----4--4-----4----4------------------|
e-0h2---2----0------2---2p0-0--0h2---2----0------2---2p0-0-------------------|


VERSE AND CHORUS END
e----------------------------------------------------------------------------|
b----------------------------------------------------------------------------|
g-7---7--7-7---7-7-7--7-7-7-/-9---9--9-9---9-9-9--9-9-9-0--------------------|
d-7---7--7-7---7-7-7--7-7-7-/-9---9--9-9---9-9-9--9-9-9-0--------------------|
a-5---5--5-5---5-5-5--5-5-5-/-7---7--7-7---7-7-7--7-7-7-0--------------------|
e----------------------------------------------------------------------------|

CHORUS
e----------------------------------------------------------------------------|
b----------------------------------------------------------------------------|
g----------------------------------------------------------------------------|
d--4---4-4-4-4-4-4--4-4-4--4-4-4-4-------------------------------------------|
a--4---4-4-4-4-4-4--4-4-4--4-4-4-4-------------------------------------------|
e--0p2-2-2-2-0-0-0--2-2-2--2-2-0-0-------------------------------------------|


_____________________________________________________________________________

All Apologies
_____________________________________________________________________________

TUNING:

Drop D down 1/2 step

INTRO/VERSES/OUTRO
e----------------------------------------------------------------------------|
b----------------------------------------------------------------------------|
g----------------------------------------------------------------------------|
d--------------------------------/12-12-10-9---------------------------------|
a-9-9-10-9-/12-12-10-9---9-9-10-9-------------9-9-10-9-/12-12-10-9-----------|
e-0----------------------0-0-0--0-------------0------0--0--------------------|

e----------------------------------------------------------------------------|
b----------------------------------------------------------------------------|
g-----------11-11-9----------------------------------------------------------|
d--------------0----12-------------------------------------------------------|
a--9-9-10-9------------------------------------------------------------------|
e--0-0-0--0------------------------------------------------------------------|

CHORUS
e----------------------------------------------------------------------------|
b----------------------------------------------------------------------------|
g----------------------------------------------------------------------------|
d-5-5-5-5-5-5-5--------------------------------------------------------------|
a-5-5-5-5-5-5-5--------------------------------------------------------------|
e-5-5-5-5-5-5-5--------------------------------------------------------------|

and then
e----------------------------------------------------------------------------|
b--2-------------------------------------------------------------------------|
g--2-------------------------------------------------------------------------|
d--2-------------------------------------------------------------------------|
a--0-------------------------------------------------------------------------|
e----------------------------------------------------------------------------|


There You Go . Its Pritty sick man.
Looking for nuggets IM tiptaptong or drippingsofish
later
your budd ,Ryan..........Be sure to rate
Comments