Nirvana - White Lace And Strange Chords & Tabs

 

White Lace And Strange Chords & Tabs

Nirvana Chords & Tabs

Version: 2 Type: Tab 0 ratings
1 star 2 stars 3 stars 4 stars 5 stars
comments

White Lace And Strange Tab

White lace and strange by Nirvana


intro
E]--------------------------------------------------------------------------|
B]--------------------------------------------------------------------------|
G]--------------------------------------------------------------------------|
D]--------------------------------------------------------------------------|
A]---7--7-------------(5-7-5-7-5-7-5-7-5-7-5-7)-----------------------------|
e]---0--0--4--5--6--7-------------------------------------------------------|
[ Tab from: http://www.guitartabs.cc/tabs/n/nirvana/white_lace_and_strange_tab_ver_2.html ]
chorus
E]--------------------------------------------------------------------------|
B]--------------------------------------------------------------------------|
G]---9--9--7--9--9--9--9--7/-9----------------------------------------------|
D]---9--9--7--9--9--9--9--7/-9--9--9--9-------------------------------------|
A]---7--7--5--7--7--7--7--5/-7--9--9--9-------------------------------------|
e]------------------------------7--7--7-------------------------------------|


solo
just improvise it


/ slide up
() flick it a bunch of times
Comments