Nirvana - White Lace And Strange Chords & Tabs

 

White Lace And Strange Chords & Tabs

Nirvana Chords & Tabs

Version: 1 Type: Bass Tab 0 ratings
1 star 2 stars 3 stars 4 stars 5 stars
comments

White Lace And Strange Bass Tab

		     White Lace and Strange (Bass) - Nirvana
-------------------------------------------------------------------------------

Tabbed By :Chris
e-mail:Henryp@prodigy.net

Tuning:Standard,4 string bass
This song is pretty straight forward. There are a few variations here and there, but i 
try to tab them as best as i can.

intro and verse
G|---------------------------------------------------------------------------|
D|---------------------------------------------------------------------------|
A|---------------------7p5-7p5-7---------------------------------------------|
E|--0-0-0-4-5-6-7-(7)--------------------------------------------------------|

the 7 in ( ) is optional, whatever you think sounds better
[ Tab from: http://www.guitartabs.cc/tabs/n/nirvana/white_lace_and_strange_btab.html ]
chorus
G|---------------------------------------------7-9-7-------------------------|
D|----------------------------------------7-9--------9-7-5-------------------|
A|--7-7-5-7-7-5-7-7-5-----5---7-7-5-7-7-5------------------------------------|
E|--------------------7-7----------------------------------------------------|
                                          ^ This may be hard to hear

During the guitar solo he throws in some of these...
G|----------------------|----------------------------------------------------|
D|----------------------|----------------------------------------------------|
A|----------------------|---------7-5----------------------------------------|
E|-0-0-0-4-5-6-7-0-0-0--|---0-0-0------7-5-0-0-0-----------------------------|

*Some times the intro and verse riff are played during the guitar solo

Thats about it, this song is short but sweet, you can figue out the order very easily 
a beginner could.

Note:The bass in this song can be hard to hear at times. This song has a lot of room
for variations, and i may be missing a few. I can tell you that anything i could not
tab is just a very slight variation of the riffs i do have tabbed already, nothing
very difficult. So fool around with what is here. HAVE FUN!
Comments