Nirvana - Where Did You Sleep Last Night Chords & Tabs

 

Where Did You Sleep Last Night Chords & Tabs

Nirvana Chords & Tabs

Version: 4 Type: Tab 0 ratings
1 star 2 stars 3 stars 4 stars 5 stars
comments

Where Did You Sleep Last Night Tab

   
this tab is correct 100%, I took the time to copy it out of a magazine, I do not
know if i got the pattern of it totally right, but I know the chords and tab is 100%.

"Where Did You Sleep Last Night" by Nirvana
(Eb-Ab-Db-Gb-Bb-Eb)

(hb) = half bend.

Intro:
-----
 
||--------0---|----------------|---------------|------3-----|---------------------|
||0-------2---|----------------|------2--2---0-|--0---0---0-|4----4---4---4-------|
||.-------2---|----------------|------2--2---0-|--0---0---0-|4----4---4---4-------|
||.--2--------|-2---2----------|--2---2--2---0-|--0-------0-|4----4---4---4-------|
||---2--------|-2---2----------|--0------------|--2-------2-|2----2---2---2-------|
||---0--------|-0------0--2--3-|---------------|--3-------3-|----------------0----|


Verse 1:
-----

|------0--0--0-|--0--0--0--0--0--||----------------|-------------|----------------|
|--0---0--0--0-|--0--0--0--0--0--||----------------|-------------|----------------|
|--1---1--1--1-|--1--1--1--1--1-.||----------------|-------------|----------------|
|--2-----------|--2--------------||---------2------|-----2-------|------2----0----|
|--2-----------|--2-------------.||-----2-------2--|--------2---2|-2-------2------|
|--0-----------|--0--------------||--0-------------|-0-----------|-0-------0------|


|------------------|--------------------|------------------|--------------------|
|--------2-------0-|-----------0--------|---------4--4--4--|--------------------|
|--------2-------0-|-----------0--------|---------4--4--4--|--------4-----------|
|--2---------2-----|-------0---------0--|--4------4--4--4--|--------4-----------|
|--0---------0-----|--------------------|--2---------------|--2-----------------|
|------------------|--3-----------------|------------------|-----------2(hb)----|

[ Tab from: http://www.guitartabs.cc/tabs/n/nirvana/where_did_you_sleep_last_night_tab_ver_4.html ]
|-------------|--0-------------|--0---0---0-|--0---0-------|--------------------|
|----------0--|--0---0------0--|--0---0---0-|--0---0-----0-|-2---2--2--2--0-----|
|-----1----1--|--x----------0--|--x---------|--x---------0-|-2---2--2--2--0-----|
|-----2-------|--2-------2-----|--2---------|--2------2--0-|-2---2--2--2--0-----|
|--2----------|--2-------2-----|--2---------|--2------2----|-0------------------|
|--0-----0----|--0-------------|--0---------|--0------0----|--------------------|

|-------3-------|------------------|--------------|--------------|---------0--0--||
|--0----0--0--0-|--4---4--4--4---4-|--4---4--4--4-|--0---0--0--0-|--0---0--0--0--||
|--0----0--0--0-|--4---4--4--4---4-|--4---4--4--4-|--x---x--x--x-|--x---x--x--x--||
|--0-------0--0-|--4---4--4--4---4-|--4---------4-|--2---2--2--2-|--2---2--2--2--||
|--x-------0--0-|--2---2--2--2---2-|--2---------2-|--2---2--2--2-|--2---2--2--2--||
|--3------------|------------------|--------------|--0---0--0--0-|--0---0--0--0--||


Verse 2/Outro:
------------
 verse:
|----------------|-----------|--------|-------|-------|------------------|
|--4-----4--4----|--4--------|--------|-------|-------|------------------|
|--4-----4--4----|--4--------|--------|-------|-------|--2----2--2----2--|
|--4-----4--4----|--4--------|--------|-------|-------|--2----2--2----2--|
|--2-----2--2----|--2--------|--------|-------|-------|--2----2--2----2--|
|----------------|-----------|--------|-------|-------|--0----0--0----0--|

 outro:
|----------------|------------------|-----------------|----|---------------|------0--|
|----------------|------------------|-----------------|----|--4---4--4---4-|------0--|
|--2----2--2--2--|--2----2--2--2--2-|--2---2--2--2--2-|----|--4---4--4---4-|---------|
|--2----2--2--2--|--2----2--2--2--2-|--2---2--2--2--2-|----|--4---4--4---4-|--2------|
|--2----2--2--2--|--2----2--2--2--2-|--2---2--2--2--2-|----|--2---2--2---2-|--2------|
|--0----0--0--0--|--0----0--0--0--0-|--0---0--0--0--0-|----|---------------|--0------|
Comments