Nirvana - Where Did You Sleep Last Night Chords & Tabs

 

Where Did You Sleep Last Night Chords & Tabs

Nirvana Chords & Tabs

Version: 3 Type: Tab 0 ratings
1 star 2 stars 3 stars 4 stars 5 stars
comments

Where Did You Sleep Last Night Tab

   
Yo, this is the Nirvana unplugged version of: where did you sleep last night. Enjoy!!

Tabbed by: babyeater
Tune your guitar down 1/2 step!

Intro:
(just the chord progression)
[ Tab from: http://www.guitartabs.cc/tabs/n/nirvana/where_did_you_sleep_last_night_tab_ver_3.html ]
  E5           A     G   B
|--0-----------------3--------|
|--0-----------2-----3---4----|
|--x-----------2-----0---4----|
|--2-----------2-----0---4----|
|--2-----------0-----2---2----|
|--0---0-2-3---------3--------|
      
Verse:

There you don't play the full chords; pick single tones of 
the chords.

chorus:

just the same chords again:

|--0-----------3--------|
|--0-----2-----3---4----|
|--x-----2-----0---4----|
|--2-----2-----0---4----|
|--2-----0-----2---2----|
|--0-----------3--------|
      
That's it!
Comments and suggestions are welcome :-)
www.brauereimeister@web.de
Comments