Nirvana - Very Ape Chords & Tabs

 

Very Ape Chords & Tabs

Nirvana Chords & Tabs

Version: 2 Type: Tab

Very Ape Tab

   
	**** Very Ape **** from `In Utero` side2,track1-by Nirvana

	This is one of my favorites on the album.Needless to say it's the
one I am probably most wrong on. So FWIW hert goes...

	Cool biting,overdriven,make-you-break-out-in-a-cold-sweat guitar.

Verse:   If you ever need anything please dont...,
      **
E|----------------------------------------|-
B|----2-2-----3-3---------2-2--------3-3--|-
G|-0--2-2--0--3-3----0----2-2----0---3-3--|-
D|-0--2-2--0--3-3----0----2-2----0---3-3--|-
A|-0-------0---------0-----------0--------|-
E|----------------------------------------|-

		Repeat during Verse.Every other time playing 1st A chords
		( the ones marked `*` ) like this:  0
						    2
						    2
					            2
                                      		    X 
						    X
I use X to indicate the string not being played at all (not meaning dampened)

At the part " I'm very ape and very nice " the guitar is:
[ Tab from: http://www.guitartabs.cc/tabs/n/nirvana/very_ape_tab_ver_2.html ]
                	G            F
                 	3            1
                        3            1
                        4            2
                        5            3
                        5            3
                        3            1
Chorus

      Out of the Ground, Into the sky  , Out of the sky, into the dirt. 
A C E            A  C E           A C E             A C E         A C E
0 3 7
2 5 9
2 5 9
2 5 9            ..same             ..same        .same .............
0 X 7   
X X X
		Slide the barre up to the chords.
The lead guitar over this is as such:


E|----3--5-5-5---3--6-6-6--|--
B|-------------------------|--
G|-------------------------|--
D|-------------------------|--
A|-------------------------|--		Repeated untill ...
E|-------------------------|--

E|----15--16-16-16--15--17-17-17--|--
B|--------------------------------|--
G|--------------------------------|--
D|--------------------------------|--
A|--------------------------------|--
E|--------------------------------|--

	hope this is of some use.I can post the lyrics if anyone so requires.
	As usual any comments and corrections to me
	please.Thank you for flying with us.
	Ben S.