Nirvana - Tourettes Chords & Tabs

 

Tourettes Chords & Tabs

Nirvana Chords & Tabs

Version: 5 Type: Tab 0 ratings
1 star 2 stars 3 stars 4 stars 5 stars
comments

Tourettes Tab

   
Gtr I (Eb Ab Db Gb Bb Eb) - 'Kurt Cobain - Rhythm w/dist'

Intro
  Q=172
 4/4
  Gtr I
    H        Q  E E E E E E   E E E E E E E E
|----------|----------------|-----------------|
|----------|----------------|-----------------|
|-([x])----|--------3-3-3-3-|-4-4-4-----------|
|----------|-4--4-4-3-3-3-3-|-4-4-4-0-5-5-5-5-|
|----------|-4--4-4-1-1-1-1-|-2-2-2-0-5-5-5-5-|
|----------|-2--2-2---------|---------3-3-3-3-|


  E E E E E E E E   E E E E E E E E
|-----------------|-----------------|
|-----------------|-----------------|
|---------3-3-3-3-|-4-4-4-4---------|
|-4-4-4-4-3-3-3-3-|-4-4-4-4-5-5-5-5-|
|-4-4-4-4-1-1-1-1-|-2-2-2-2-5-5-5-5-|
|-2-2-2-2---------|---------3-3-3-3-|


  E E E E E E E E   E E E E E E E E   E E E E E E E E   E E E E E E E E
|-----------------|-----------------|-----------------|-----------------||
|-----------------|-----------------|-----------------|-----------------||
|---------3-3-3-3-|-4-4-4-----------|---------3-3-3---|-4-4-4-----------||
|-4-4-4-4-3-3-3-3-|-4-4-4-0-5-5-5-0-|-4-4-4---3-3-3-0-|-4-4-4-0-5-5-5-0-||
|-4-4-4-4-1-1-1-1-|-2-2-2-0-5-5-5-0-|-4-4-4-0-1-1-1-0-|-2-2-2-0-5-5-5-0-||
|-2-2-2-2---------|---------3-3-3---|-2-2-2-0---------|---------3-3-3---||
|-Rhy Fig 1                                               end Rhy Fig 1-|

   Verses
    $
||--
||o-
||-- Rhy Fig 1 x2
||--
||o-
||--


 Chorus
  E E E E +E  E S S E   E E E E +E  E S S E
|---------------------|---------------------|
|---------------------|---------------------|
|-----4-3-(3)-3-4p3p0-|-----4-3-(3)-3-4p3p0-|
|---------------------|---------------------|
|-4-------------------|-4-------------------|
|-2-------------------|-2-------------------|
|-Riff A                         end Riff A-|

Riff A x2
[ Tab from: http://www.guitartabs.cc/tabs/n/nirvana/tourettes_tab_ver_5.html ]
  E E E E +E  E S S E   E E E E +E  E S S E
|---------------------|----------------------||
|---------------------|---------------------o||
|-----4-3-(3)-3-4p3p0-|-----4-3-(3)-3-4p3p0--||
|---------------------|----------------------||
|-4-------------------|-4-------------------o||
|-2-------------------|-2--------------------||


  2.,D.S.
  Riff A
	
	
                                To Coda
  E E E E +E  E S S E   Q  E E E E E E
|---------------------|-----------------||
|---------------------|-----------------||
|-----4-3-(3)-3-4p3p0-|-----------------||
|---------------------|-4--4-4-4-4-4-4--||
|-4-------------------|-4--4-4-4-4-4-4--||
|-2-------------------|-2--2-2-2-2-2-2--||


 Interlude
  E E E E E E E E   E E E E   E  E  E  E
|-----------------|----------------------|
|-----------------|---------/16-16-16\---|
|---------3-3-3---|-4-4-4----------------|
|-4-4-4---3-3-3-0-|-4-4-4-0-/15-15-15\---|
|-4-4-4-0-1-1-1-0-|-2-2-2-0------------0-|
|-2-2-2-0---------|----------------------|


  Q  E E E E E E   E E E E S S S S E. S
|----------------|----------------------|
|----------------|---------9-9-9-9-9----|
|--------3-3-3-3-|-3-4-4-4-9-9-9-9-9--0-|
|-4--4-4-3-3-3-3-|-3-4-4-4--------------|
|-4--4-4-1-1-1-1-|-1-2-2-2--------------|
|-2--2-2---------|----------------------|


                                                        D.S. al Coda
  Q  E E E E E E   E E E E E E E E   Q  E E E E E E   E E E E E E E E
|----------------|-----------------|----------------|-----------------||
|----------------|-------------0-0-|----------------|-----------------||
|--------3-3-3-3-|-3-3-3-0-----0-0-|--------3-3-3-3-|-4-4-4-4---------||
|-4--4-4-3-3-3-3-|-3-3-3-0-3-4-----|-4--4-4-3-3-3-3-|-4-4-4-4-5-5-5-5-||
|-4--4-4-1-1-1-1-|-1-1-1-----------|-4--4-4-1-1-1-1-|-2-2-2-2-5-5-5-5-||
|-2--2-2---------|-----------------|-2--2-2---------|---------3-3-3-3-||


   Outro
    &
    Rhy Fig 1 x2


 Free Time
  H.      +Q        +H     +H        +H       +H         +H      H
|-----------------:---------------:-------------------:---------------*|
|-----------------:---------------:-------------------:---------------*|
|-----------------:---------------:-------------------:---------------*|
|-----------------:---------------:-------------------:---------------*|
|-4-------(4)b5===:=(4)r----------:-------------------:---------------*|
|-2-------(2)b3===:=(2)r===(2)----:-([2])----([2])----:-([2])---------*|
Comments