Nirvana - Tourettes Chords & Tabs

 

Tourettes Chords & Tabs

Nirvana Chords & Tabs

Version: 1 Type: Tab 0 ratings
1 star 2 stars 3 stars 4 stars 5 stars
comments

Tourettes Tab

   
Band: Nirvana
Song: Tourette's
Album: From the Muddy Banks of the Wishkah
Tabbed by: Steve Zoula

*--------------------------------------------------------------------*
*--------------------------------------------------------------------*

This tab is a live verson. It is in Standard Tuning (E,a,D,G,B,E)
It goes a little somethin like this......

  Intro/Verses: 
[ Tab from: http://www.guitartabs.cc/tabs/n/nirvana/tourettes_tab.html ]
 E[------------------------------------------------------]
 B[------------------------------------------------------]
 G[------------2-2-2-2---3-3-3-3-------------------------]
 D[--3-3-3-3---2-2-2-2-0-3-3-3-3-0-4-4-4-4---------------]
 A[--3-3-3-3---0-0-0-0-0-1-1-1-1-0-4-4-4-4---------------]
 E[--1-1-1-1-0---------------------2-2-2-2---------------]

 
  Bridge/intrlude 
      
   (or whatever the hell you want to call it have some fun with it)

     
 E[-----------------------------------------------------]
 B[-----------------------------------------------------]
 G[---2-3-22-3-2-3-22-3-2-3 22-3-2-3-22-3---------------]
 D[---0--------0--------0--------0----------------------]
 A[-----------------------------------------------------]
 E[-----------------------------------------------------]  


Well thats the whole song just repeat it a few times and maybe make
some shit up that fits!! 
 
My e-mail is fiXXXer_420@hotmail.com if you have any questions       
comments or concerns. Later
Comments