Nirvana - Token Eastern Song Chords & Tabs

 

Token Eastern Song Chords & Tabs

Nirvana Chords & Tabs

Version: 1 Type: Tab 0 ratings
1 star 2 stars 3 stars 4 stars 5 stars
comments

Token Eastern Song Tab

Submitted by: Brian
E-Mail: NirVanA19866@aol.com
Song Title: Tolen Eastern Song
Artist: Nirvana
Album: With The Lights Out(Box Set)Cd 1
Tunning: Standard

Verse:
e------0-0-0---|
B------0-0-0---| Listen To The
G------1-1-1---| Song To See How Many
D-2-2--2-2-2---| You Do That
A-2-2--2-2-2---|
E-0-0--0-0-0-1-|

Chours
e---------------|
B---------------|
G---------------|
D-5-5-5--4--4-4-|
A-5-5-5--4--4-4-|
E-3-3-3--2--2-2-|

Solo
e------------------------------------------------|
B------------------------------------------------|
G------------------------------------------------|
D------6----------6----------6---6-7-7/9-9-7-----|
A-/7-7---8-5-/7-7---8-5-/7-7---7-------------7-5-|
E------------------------------------------------|

e------------------------------------------------------|
B------------------------------------------------------|
G----------------------------------------------7-9-9-9-|
D------6----------6----------6---6-7-7/9-9-7-9---------|
A-/7-7---8-5-/7-7---8-5-/7-7---7-----------------------|
E------------------------------------------------------|
[ Tab from: http://www.guitartabs.cc/tabs/n/nirvana/token_eastern_song_tab.html ]
e-13-13-13--12-12---------------------------------------------------|
B-----------------3b-3b-3b----------8-8-8-8-9-9-9-9-----------------|
G-----------------2b-2b-2b-3bp-2p-0-8-8-8-8-9-9-9-9--9-7-11-11-11br-|
D-----------------------------------8-8-8-8-9-9-9-9-----------------|
A-------------------------------------------------------------------|
E-------------------------------------------------------------------|

e--------------------------------------------------------------------------|
B--------------------------------------------------------------------------|
G-9p-7p-0-2-4-4-4-0-2-2/5-5-5---5-5/8-8-8-0-0-7-7-9-9-11-11-12-12-14-14-14-|
D-----------------------------4--------------------------------------------|
A--------------------------------------------------------------------------|
E--------------------------------------------------------------------------|

e---------------------------|
B---------------------------|
G-12-14-14b-14b-14b-14b-14--|b
D---------------------------|
A---------------------------|
E---------------------------|

Last Verse:
e------0-0-0--------0-0-0--------0-0-0---------------------------|
B------0-0-0--------0-0-0--------0-0-0---------------------------|
G------1-1-1--------1-1-1--------1-1-1---9-9-9-9-9-9-9-9-9-9-9-9-|
D-2-2--2-2-2---2-2--2-2-2---2-2--2-2-2---9-9-9-9-9-9-9-9-9-9-9-9-|
A-2-2--2-2-2---2-2--2-2-2---2-2--2-2-2---7-7-7-7-7-7-7-7-7-7-7-7-|
E-0-0--0-0-0-1-0-0--0-0-0-1-0-0--0-0-0-1/------------------------|

Song Structure:
Verse
Chours
Verse
Chours
Verse 4X
Solo
Chours
Last Verse

If You Have Any Corrections E-Mail Me
Comments