Nirvana - The Other Improv Chords & Tabs

 

The Other Improv Chords & Tabs

Nirvana Chords & Tabs

Version: 2 Type: Tab 0 ratings
1 star 2 stars 3 stars 4 stars 5 stars
comments

The Other Improv Tab

   
-----------------------------------------------------------------------------
			     The Other Improv - NIRVANA
-----------------------------------------------------------------------------
Tabbed by: Mike O'Brien
Email: knoxville8402@yahoo.com

Tuning: Standard Tuning

Main riff: (Intro/Verse)
e|-------------------------------------------------------------------------|
B|-------------------------------------------------------------------------|
G|--2--4-------------------------------------------------------------------|
D|--2--4--5-5--4-----------------------------------------------------------|
A|--0--2--5-5--4-----------------------------------------------------------|
E|--------3-3--2--0--------------------------------------------------------|
[ Tab from: http://www.guitartabs.cc/tabs/n/nirvana/the_other_improv_tab_ver_2.html ]
"Chorus"
e|-------------------------------------------------------------------------|
B|-------------------------------------------------------------------------|
G|--6-6-6-6-6-6-6-6--4-4-4-4-4-4-4-4--2-2-2-2-2-2-2-2-2-2-2-2-2-2-2-2------|
D|--6-6-6-6-6-6-6-6--4-4-4-4-4-4-4-4--2-2-2-2-2-2-2-2-2-2-2-2-2-2-2-2------|
A|--4-4-4-4-4-4-4-4--2-2-2-2-2-2-2-2--0-0-0-0-0-0-0-0-0-0-0-0-0-0-0-0------|
E|-------------------------------------------------------------------------|

the outro is pretty much the same as the main riff but is slighty different,
just listen to the song and mess with the chords.



| /  slide up
| \  slide down
| h  hammer-on
| p  pull-off
| ~  vibrato
| +  harmonic
| x  Mute note
============================================================================
Comments