Nirvana - The Man Who Sold The World Chords & Tabs

 

The Man Who Sold The World Chords & Tabs

Nirvana Chords & Tabs

Version: 1 Type: Tab 0 ratings
1 star 2 stars 3 stars 4 stars 5 stars
comments

The Man Who Sold The World Tab

   
Bowie played by Nirvana
Gtr. 1 (acous.)
an improved version with the Distortion guitar and Eb tuning



                                                          
D#||--------------------------|--------------------------|
A#||--------------------------|--------------------------|
F#||--2--2--2--0----2h3p2--0--|--2--2--2--0----2h3p2--0--|
C#||--------------------------|--------------------------|
G#||--------------------------|--------------------------|
D#||--------------------------|--------------------------|


                                                      
--------------------------|--------------------------|
--------------------------|--------------------------|
--2--2--2--0----2h3p2--0--|--2--2--2--0----2h3p2--0--|
--------------------------|--------------------------|
--------------------------|--------------------------|
--------------------------|--------------------------|


                                                                            
--------------------------|--------------------------|--------------------||
--------------------------|--------------------------|--------------------||
--2--2--2--0----2h3p2--0--|--2--2--2--0----2h3p2--0--|--2----------------*||
--------------------------|--------------------------|-------------------*||
--------------------------|--------------------------|--------------------||
--------------------------|--------------------------|--------------------||


                      A                                             G/A 
-------------------|--0--0--x--0----0--0--0--|--0--0--x--0----0--0-----|
-------------------|--2--2--x--2----2--2--2--|--2--2--x--2----2--2--0--|
----------------0--|--2--2--x--2----2--2--2--|--2--2--x--2----2--2--0--|
----------------0--|--2--2--x--2----2--2--2--|--2--2--x--2----2--2--0--|
-------------------|--0--0--x--0----0--0--0--|--0--0--x--0----0--0--0--|
-------------------|-------------------------|-------------------------|


  Dm                  Em7/  Dm                  Em7/  A                       
--1--1--x--1----1--1--0--|--1--1--x--1----1--1--0--|--0--0--x--0----0--0--0--|
--3--3--x--3----3--3--0--|--3--3--x--3----3--3--0--|--2--2--x--2----2--2--2--|
--2--2--x--2----2--2--0--|--2--2--x--2----2--2--0--|--2--2--x--2----2--2--2--|
--0--0--x--0----0--0--0--|--0--0--x--0----0--0--0--|--2--2--x--2----2--2--2--|
-------------------------|-------------------------|--0--0--x--0----0--0--0--|
-------------------------|-------------------------|-------------------------|


                      G/A   F                                             G/A 
--0--0--x--0----0--0-----|--1--1--x--1----1--1--1--|--1--1--x--1----1--1-----|
--2--2--x--2----2--2--0--|--1--1--x--1----1--1--1--|--1--1--x--1----1--1--0--|
--2--2--x--2----2--2--0--|--2--2--x--2----2--2--2--|--2--2--x--2----2--2--0--|
--2--2--x--2----2--2--0--|--3--3--x--3----3--3--3--|--3--3--x--3----3--3--0--|
--0--0--x--0----0--0--0--|--3--3--x--3----3--3--3--|--3--3--x--3----3--3--0--|
-------------------------|--1--1--x--1----1--1--1--|--1--1--x--1----1--1-----|


  C                   G/A   A                                G/A 
--0--0--x--0----0--0-----|--0----0--0----0----0--|--0--0--0-----|
--1--1--x--1----1--1--0--|--2----2--2----2----2--|--2--2--2--0--|
--0--0--x--0----0--0--0--|--2----2--2----2----2--|--2--2--2--0--|
--2--2--x--2----2--2--0--|--2----2--2----2----2--|--2--2--2--0--|
--3--3--x--3----3--3--0--|--0----0--0----0----0--|--0--0--0--0--|
-------------------------|-----------------------|--------------|


  Dm                                            Em7/  C                        
--1--1--x--1----1--1--1--|--1--1--x--1----1--1--0--|--0--0--0--0--0--0--0--0--|
--3--3--x--3----3--3--3--|--3--3--x--3----3--3--0--|--1--1--1--1--1--1--1--1--|
--2--2--x--2----2--2--2--|--2--2--x--2----2--2--0--|--0--0--0--0--0--0--0--0--|
--0--0--x--0----0--0--0--|--0--0--x--0----0--0--0--|--2--2--2--2--2--2--2--2--|
-------------------------|-------------------------|--3--3--3--3--3--3--3--3--|
-------------------------|-------------------------|--------------------------|


  C                    G/A   F                    G/A   Db                 G/A 
--0--0--0--0--0--0--0-----|--1--1--1--1--1--1--1-----|------------------------|
--1--1--1--1--1--1--1--0--|--1--1--1--1--1--1--1--0--|--6----6--6----6--6--0--|
--0--0--0--0--0--0--0--0--|--2--2--2--2--2--2--2--0--|--6----6--6----6--6--0--|
--2--2--2--2--2--2--2--0--|--3--3--3--3--3--3--3--0--|--6----6--6----6--6--0--|
--3--3--3--3--3--3--3--0--|--3--3--3--3--3--3--3--0--|--4----4--4----4--4--0--|
--------------------------|--1--1--1--1--1--1--1-----|------------------------|


  F                    G/A   C                    G/A 
--1--1--1--1--1--1--1-----|--0--0--0--0--0--0--0-----|
--1--1--1--1--1--1--1--0--|--1--1--1--1--1--1--1--0--|
--2--2--2--2--2--2--2--0--|--0--0--0--0--0--0--0--0--|
--3--3--3--3--3--3--3--0--|--2--2--2--2--2--2--2--0--|
--3--3--3--3--3--3--3--0--|--3--3--3--3--3--3--3--0--|
--1--1--1--1--1--1--1-----|--------------------------|


  F                    G/A   Db                 G/A                            
--1--1--1--1--1--1--1-----|------------------------|--------------------------|
--1--1--1--1--1--1--1--0--|--6----x--6----6--x--0--|--------------------------|
--2--2--2--2--2--2--2--0--|--6----x--6----6--x--0--|--2--2--2--0----2h3p2--0--|
--3--3--3--3--3--3--3--0--|--6----x--6----6--x--0--|--------------------------|
--3--3--3--3--3--3--3--0--|--4----x--4----4--x--0--|--------------------------|
--1--1--1--1--1--1--1-----|------------------------|--------------------------|


                                                      
--------------------------|--------------------------|
--------------------------|--------------------------|
--2--2--2--0----2h3p2--0--|--2--2--2--0----2h3p2--0--|
--------------------------|--------------------------|
--------------------------|--------------------------|
--------------------------|--------------------------|


                                                      
--------------------------|--------------------------|
--------------------------|--------------------------|
--2--2--2--0----2h3p2--0--|--2--2--2--0----2h3p2--0--|
--------------------------|--------------------------|
--------------------------|--------------------------|
--------------------------|--------------------------|


                                                                     
--------------------------|--------------------||-------------------|
--------------------------|--------------------||-------------------|
--2--2--2--0----2h3p2--0--|--2----------------*||----------------0--|
--------------------------|-------------------*||----------------0--|
--------------------------|--------------------||-------------------|
--------------------------|--------------------||-------------------|


  A                                             G/A   Dm                  Em7/
--0--0--x--0----0--0--0--|--0--0--x--0----0--0-----|--1--1--x--1----1--1--0--|
--2--2--x--2----2--2--2--|--2--2--x--2----2--2--0--|--3--3--x--3----3--3--0--|
--2--2--x--2----2--2--2--|--2--2--x--2----2--2--0--|--2--2--x--2----2--2--0--|
--2--2--x--2----2--2--2--|--2--2--x--2----2--2--0--|--0--0--x--0----0--0--0--|
--0--0--x--0----0--0--0--|--0--0--x--0----0--0--0--|-------------------------|
-------------------------|-------------------------|-------------------------|


  Dm                  Em7/  A                                             G/A 
--1--1--x--1----1--1--0--|--0--0--x--0----0--0--0--|--0--0--x--0----0--0-----|
--3--3--x--3----3--3--0--|--2--2--x--2----2--2--2--|--2--2--x--2----2--2--0--|
--2--2--x--2----2--2--0--|--2--2--x--2----2--2--2--|--2--2--x--2----2--2--0--|
--0--0--x--0----0--0--0--|--2--2--x--2----2--2--2--|--2--2--x--2----2--2--0--|
-------------------------|--0--0--x--0----0--0--0--|--0--0--x--0----0--0--0--|
-------------------------|-------------------------|-------------------------|


  F                                             G/A   C                   G/A 
--1--1--x--1----1--1--1--|--1--1--x--1----1--1-----|--0--0--x--0----0--0-----|
--1--1--x--1----1--1--1--|--1--1--x--1----1--1--0--|--1--1--x--1----1--1--0--|
--2--2--x--2----2--2--2--|--2--2--x--2----2--2--0--|--0--0--x--0----0--0--0--|
--3--3--x--3----3--3--3--|--3--3--x--3----3--3--0--|--2--2--x--2----2--2--0--|
--3--3--x--3----3--3--3--|--3--3--x--3----3--3--0--|--3--3--x--3----3--3--0--|
--1--1--x--1----1--1--1--|--1--1--x--1----1--1-----|-------------------------|


  A                                G/A   Dm                      
--0----0--0----0----0--|--0--0--0-----|--1--1--x--1----1--1--1--|
--2----2--2----2----2--|--2--2--2--0--|--3--3--x--3----3--3--3--|
--2----2--2----2----2--|--2--2--2--0--|--2--2--x--2----2--2--2--|
--2----2--2----2----2--|--2--2--2--0--|--0--0--x--0----0--0--0--|
--0----0--0----0----0--|--0--0--0--0--|-------------------------|
-----------------------|--------------|-------------------------|

[ Tab from: http://www.guitartabs.cc/tabs/n/nirvana/the_man_who_sold_the_world_tab.html ]
                      Em7/  C                          C                    G/A 
--1--1--x--1----1--1--0--|--0--0--0--0--0--0--0--0--|--0--0--0--0--0--0--0-----|
--3--3--x--3----3--3--0--|--1--1--1--1--1--1--1--1--|--1--1--1--1--1--1--1--0--|
--2--2--x--2----2--2--0--|--0--0--0--0--0--0--0--0--|--0--0--0--0--0--0--0--0--|
--0--0--x--0----0--0--0--|--2--2--2--2--2--2--2--2--|--2--2--2--2--2--2--2--0--|
-------------------------|--3--3--3--3--3--3--3--3--|--3--3--3--3--3--3--3--0--|
-------------------------|--------------------------|--------------------------|


  F                    G/A   Db                 G/A   F                    G/A 
--1--1--1--1--1--1--1-----|------------------------|--1--1--1--1--1--1--1-----|
--1--1--1--1--1--1--1--0--|--6----6--6----6--6--0--|--1--1--1--1--1--1--1--0--|
--2--2--2--2--2--2--2--0--|--6----6--6----6--6--0--|--2--2--2--2--2--2--2--0--|
--3--3--3--3--3--3--3--0--|--6----6--6----6--6--0--|--3--3--3--3--3--3--3--0--|
--3--3--3--3--3--3--3--0--|--4----4--4----4--4--0--|--3--3--3--3--3--3--3--0--|
--1--1--1--1--1--1--1-----|------------------------|--1--1--1--1--1--1--1-----|


  C                    G/A   F                    G/A   Db                 G/A 
--0--0--0--0--0--0--0-----|--1--1--1--1--1--1--1-----|------------------------|
--1--1--1--1--1--1--1--0--|--1--1--1--1--1--1--1--0--|--6----x--6----6--x--0--|
--0--0--0--0--0--0--0--0--|--2--2--2--2--2--2--2--0--|--6----x--6----6--x--0--|
--2--2--2--2--2--2--2--0--|--3--3--3--3--3--3--3--0--|--6----x--6----6--x--0--|
--3--3--3--3--3--3--3--0--|--3--3--3--3--3--3--3--0--|--4----x--4----4--x--0--|
--------------------------|--1--1--1--1--1--1--1-----|------------------------|


                                                      
--------------------------|--------------------------|
--------------------------|--------------------------|
--2--2--2--0----2h3p2--0--|--2--2--2--0----2h3p2--0--|
--------------------------|--------------------------|
--------------------------|--------------------------|
--------------------------|--------------------------|


                                                        
--------------------------|---------------------------||
--------------------------|---------------------------||
--2--2--2--0----2h3p2--0--|--2--2--2p-0--0--0--2--0--*||
--------------------------|-----------------------0--*||
--------------------------|---------------------------||
--------------------------|---------------------------||


  C                    G/A   F                    G/A   Db                 G/A 
--0--0--0--0--0--0--0-----|--1--1--1--1--1--1--1-----|------------------------|
--1--1--1--1--1--1--1--0--|--1--1--1--1--1--1--1--0--|--6----6--6----6--6--0--|
--0--0--0--0--0--0--0--0--|--2--2--2--2--2--2--2--0--|--6----6--6----6--6--0--|
--2--2--2--2--2--2--2--0--|--3--3--3--3--3--3--3--0--|--6----6--6----6--6--0--|
--3--3--3--3--3--3--3--0--|--3--3--3--3--3--3--3--0--|--4----4--4----4--4--0--|
--------------------------|--1--1--1--1--1--1--1-----|------------------------|


  F                    G/A   C                    G/A 
--1--1--1--1--1--1--1-----|--0--0--0--0--0--0--0-----|
--1--1--1--1--1--1--1--0--|--1--1--1--1--1--1--1--0--|
--2--2--2--2--2--2--2--0--|--0--0--0--0--0--0--0--0--|
--3--3--3--3--3--3--3--0--|--2--2--2--2--2--2--2--0--|
--3--3--3--3--3--3--3--0--|--3--3--3--3--3--3--3--0--|
--1--1--1--1--1--1--1-----|--------------------------|


  F                    G/A   Db                 G/A                            
--1--1--1--1--1--1--1-----|------------------------|--------------------------|
--1--1--1--1--1--1--1--0--|--6----x--6----6--x--0--|--------------------------|
--2--2--2--2--2--2--2--0--|--6----x--6----6--x--0--|--2--2--2--0----2h3p2--0--|
--3--3--3--3--3--3--3--0--|--6----x--6----6--x--0--|--------------------------|
--3--3--3--3--3--3--3--0--|--4----x--4----4--x--0--|--------------------------|
--1--1--1--1--1--1--1-----|------------------------|--------------------------|


                                                      
--------------------------|--------------------------|
--------------------------|--------------------------|
--2--2--2--0----2h3p2--0--|--2--2--2--0----2h3p2--0--|
--------------------------|--------------------------|
--------------------------|--------------------------|
--------------------------|--------------------------|


                                                      
--------------------------|--------------------------|
--------------------------|--------------------------|
--2--2--2--0----2h3p2--0--|--2--2--2--0----2h3p2--0--|
--------------------------|--------------------------|
--------------------------|--------------------------|
--------------------------|--------------------------|


                                                                              
--------------------------|--------------------------|-----------------------|
--------------------------|--------------------------|-----------------------|
--2--2--2--0----2h3p2--0--|--2--2--2--0----2h3p2--0--|--2--2--2--0------2/---|
--------------------------|--------------------------|-----------------------|
--------------------------|--------------------------|-----------------------|
--------------------------|--------------------------|-----------------------|


                                                                          
------------------------|---------------------|--------------------------|
------------------------|---------------------|--------------------------|
--8/--9/10\-----9--9~---|--9~-----9~-----9\---|--2--2--2--0----2h3p2--0--|
------------------------|---------------------|--------------------------|
------------------------|---------------------|--------------------------|
------------------------|---------------------|--------------------------|


                                                      
------------------------|----------------------------|
------------------------|----------------------------|
--2--2--2--0----2----4/-|--10~---10~-10~---10~-10~---|
------------------------|----------------------------|
------------------------|----------------------------|
------------------------|----------------------------|


                                                                             
-----------------------------|----------------------|-----------------------|
-----------------------------|----------------------|-----------------------|
--10~---10~-10~---10~-10\-9--|--9\---7--7~-----7~---|--7~---7~-7~---7~-7~---|
-----------------------------|----------------------|-----------------------|
-----------------------------|----------------------|-----------------------|
-----------------------------|----------------------|-----------------------|


                                                                           
------------------------|----------------------|--------------------------|
------------------------|----------------------|--------------------------|
--7/-9--9--9~-----9~-9~-|--9~---9~-9~-----9\---|--2--2--2--0----2h3p2--0--|
------------------------|----------------------|--------------------------|
------------------------|----------------------|--------------------------|
------------------------|----------------------|--------------------------|


                                                        
------------------------|------------------------------|
------------------------|------------------------------|
--2--2--2--0----0--2/---|--10~---10~-10~---10~-10~-10~-|
------------------------|------------------------------|
------------------------|------------------------------|
------------------------|------------------------------|


                                                                               
-----------------------------|-----------------------|------------------------|
-----------------------------|-----------------------|------------------------|
--10~---10~-10~---10~-10\-9--|--9\---7--7~---7~---7~-|--7~---7~-7~---7~-7/-8/-|
-----------------------------|-----------------------|------------------------|
-----------------------------|-----------------------|------------------------|
-----------------------------|-----------------------|------------------------|


                                                                            
------------------------|-----------------------|--------------------------|
------------------------|-----------------------|--------------------------|
--9----9~-9~---9~-9~-9~-|--9~---9~-9~---9~-9\---|--2--2--2--0----2h3p2--0--|
------------------------|-----------------------|--------------------------|
------------------------|-----------------------|--------------------------|
------------------------|-----------------------|--------------------------|


                                                
--------------------------|-------------------||
--------------------------|-------------------||
--2--2--2--0----2h3p2--0--|--2----------------||
--------------------------|-------------------||
--------------------------|-------------------||
--------------------------|-------------------||



Comments