Nirvana - Territorial Pissings Chords & Tabs

 

Territorial Pissings Chords & Tabs

Nirvana Chords & Tabs

Version: 3 Type: Tab 0 ratings
1 star 2 stars 3 stars 4 stars 5 stars
comments

Territorial Pissings Tab

Tuning: Standard

All of the other tabs for this was wrong so i decided to put a correct one.
It is basicaly the same thing played over and over again.
I'll write the whole thing so you know the order it goes.
 
Intro(x2):
E---------------------------------------------------------------------------
B---------------------------------------------------------------------------
G-------------------10-10-10-10-10-10-10-10--7-7-7-7-7-7-7-7-7-7-7-7-7-7-7-7
D--7-7-7-7-7-7-7-7--10-10-10-10-10-10-10-10--7-7-7-7-7-7-7-7-7-7-7-7-7-7-7-7
A--7-7-7-7-7-7-7-7--8--8--8--8--8--8--8--8---5-5-5-5-5-5-5-5-5-5-5-5-5-5-5-5
E--5-5-5-5-5-5-5-5----------------------------------------------------------

Verse 1(x2):
E---------------------------------------------------------------------------
B---------------------------------------------------------------------------
G-------------------10-10-10-10-10-10-10-10--7-7-7-7-7-7-7-7-7-7-7-7-7-7-7-7
D--7-7-7-7-7-7-7-7--10-10-10-10-10-10-10-10--7-7-7-7-7-7-7-7-7-7-7-7-7-7-7-7
A--7-7-7-7-7-7-7-7--8--8--8--8--8--8--8--8---5-5-5-5-5-5-5-5-5-5-5-5-5-5-5-5
E--5-5-5-5-5-5-5-5----------------------------------------------------------

Chorus(2x):
E---------------------------------------------------------------------------
B---------------------------------------------------------------------------
G-------------------10-10-10-10-10-10-10-10--7-7-7-7-7-7-7-7-7-7-7-7-7-7-7-7
D--7-7-7-7-7-7-7-7--10-10-10-10-10-10-10-10--7-7-7-7-7-7-7-7-7-7-7-7-7-7-7-7
A--7-7-7-7-7-7-7-7--8--8--8--8--8--8--8--8---5-5-5-5-5-5-5-5-5-5-5-5-5-5-5-5
E--5-5-5-5-5-5-5-5----------------------------------------------------------
[ Tab from: http://www.guitartabs.cc/tabs/n/nirvana/territorial_pissings_tab_ver_3.html ]
Verse 2(x2):
E---------------------------------------------------------------------------
B---------------------------------------------------------------------------
G-------------------10-10-10-10-10-10-10-10--7-7-7-7-7-7-7-7-7-7-7-7-7-7-7-7
D--7-7-7-7-7-7-7-7--10-10-10-10-10-10-10-10--7-7-7-7-7-7-7-7-7-7-7-7-7-7-7-7
A--7-7-7-7-7-7-7-7--8--8--8--8--8--8--8--8---5-5-5-5-5-5-5-5-5-5-5-5-5-5-5-5
E--5-5-5-5-5-5-5-5----------------------------------------------------------

Chorus(x4):
E---------------------------------------------------------------------------
B---------------------------------------------------------------------------
G-------------------10-10-10-10-10-10-10-10--7-7-7-7-7-7-7-7-7-7-7-7-7-7-7-7
D--7-7-7-7-7-7-7-7--10-10-10-10-10-10-10-10--7-7-7-7-7-7-7-7-7-7-7-7-7-7-7-7
A--7-7-7-7-7-7-7-7--8--8--8--8--8--8--8--8---5-5-5-5-5-5-5-5-5-5-5-5-5-5-5-5
E--5-5-5-5-5-5-5-5----------------------------------------------------------

Bridge:
E-------------------
B----------7--------
G------------7------
D------7-------7-7--
A------7---------7--
E--5-5-5---------5--


Chorus(x8):
E---------------------------------------------------------------------------
B---------------------------------------------------------------------------
G-------------------10-10-10-10-10-10-10-10--7-7-7-7-7-7-7-7-7-7-7-7-7-7-7-7
D--7-7-7-7-7-7-7-7--10-10-10-10-10-10-10-10--7-7-7-7-7-7-7-7-7-7-7-7-7-7-7-7
A--7-7-7-7-7-7-7-7--8--8--8--8--8--8--8--8---5-5-5-5-5-5-5-5-5-5-5-5-5-5-5-5
E--5-5-5-5-5-5-5-5----------------------------------------------------------

Ending:
E-------------------
B-------------------
G-------------------
D---7---------------
A---7---------------
E---5---------------
Comments