Nirvana - Territorial Pissings Chords & Tabs

 

Territorial Pissings Chords & Tabs

Nirvana Chords & Tabs

Version: 1 Type: Tab 3 ratings
1 star 2 stars 3 stars 4 stars 5 stars
comments

Territorial Pissings Tab

   
Nirvana - Territorial Pissings

Instrument - Guitar
Tuning - Standard (EADGBe)
Tabber - Michael Dixon
 
Any comments/corrections/requests to punk666bassist@hotmail.com


Intro/Verse/Chorus  (HEAVY DISTORTION)

[ Tab from: http://www.guitartabs.cc/tabs/n/nirvana/territorial_pissings_tab.html ]
e	-----------------------------------
B	-----------------------------------
G	----------12-1212-12-1212-9-99-9-99
D	9-99-9-99-12-1212-12-1212-9-99-9-99
A	9-99-9-99-10-1010-10-1010-7-77-7-77
E	7-77-7-77--------------------------

Fill Before Last Verse (* = Harmonic Note)

e	------------------------
B	------------------------
G	------------------------
D	--9--9--9--9--9--9--9--9
A	--9--9--9--9--9--9--9--9
E	77-77-77-77-77-77-77-77-
	** ** ** ** ** ** ** **


Easy enough if you can play this you should put your guitar
down and get a new hobby!
Comments