Nirvana - Stay Away Chords & Tabs

 

Stay Away Chords & Tabs

Nirvana Chords & Tabs

Version: 2 Type: Tab 0 ratings
1 star 2 stars 3 stars 4 stars 5 stars
comments

Stay Away Tab

   
This is an awesome song. Enjoy!

Tuning-Standard (EADGBE)

Intro (Distortion)
E------------------------------|
B------------------------------|
G-7-7-7-------10-10------------|
D-7-7-7-9-9-9-10-10-10-9-10-11-|
A-5-5-5-9-9-9--8--8-10-9-10-11-|
E-------7-7-7--------8-7--8--9-|

E-----------------------------------------|
B-----------------------------------------|
G-----------------------------------------|
D-----------------------------------------|
A------------------------4----------------|b~~~~~~~~~~~~~r
E-----------------------------------------|
 Monkey see, monkey do,  I don't know why
[ Tab from: http://www.guitartabs.cc/tabs/n/nirvana/stay_away_tab_ver_2.html ]
Chorus (Distortion)
Intro (Distortion)
E------------------------------|
B------------------------------|
G-7-7-7-------10-10------------|
D-7-7-7-9-9-9-10-10-10-9-10-11-|
A-5-5-5-9-9-9--8--8-10-9-10-11-|
E-------7-7-7--------8-7--8--9-|
  Stay!------------------------|Stay away!

Post-Chorus (Distortion)
E--------------------------------------------------|
B--------------------------------------------------|
G-7~7-7-7-7-7-7-7-7-7-7----------------------------|
D-7~7-7-7-7-7-7-7-7-7-7-9-9-9-9-9------------------|
A-5~5-5-5-5-5-5-5-5-5-5-9-9-9-9-9-4----------------|b~~~~~~~~~~~~~r
E-----------------------7-7-7-7-7------------------|
                                  I don't know why!

End on
E---------|
B---*8-*7-|
G-7\------|
D-7\------|
A-5\------|
E---------|

TABLATURE KEY:
B=BEND
R=RELEASE BEND
~=HOLD NOTE
*=PICKSLIDE FRET

//MISTERCHIANSAW//
Comments