Nirvana - Stay Away Chords & Tabs

 

Stay Away Chords & Tabs

Nirvana Chords & Tabs

Version: 7 Type: Bass Tab

Stay Away Bass Tab

Band:Nirvana
Song:Stay Away
Tempo:168
Tuning:Standard Tuning
Tabbed By:SoadFreak II
From Lost in the dimentions of soad
Stupid comment for no fuckin reason:Im hooked on phonics mom.
Another stupi comment:Its Gonna Rain

Note:the reason im tabbing this song is because the moron with a five star rating did
everything in 1/2 step tuning like a jackass.he must have not tuned his bass when
figuring it out.if ur gonna tab a song do it right.


Song starts with drum intro.


Intro:Repeat Intro 8 Times

           Hammer on to 3 really quick
G|------------/-----------------------------------------------------------|
D|------0-0-0h3---------3-3-----------------------------------------------|
A|--------------2-2--2------3-3-0-3-4-------------------------------------|
E|------------------------------------------------------------------------|

When The lyrics come in play
the intro too but when the "stay away part comes in play
          "Stay______________  Stay Away____________"
G|------------------------------------------------------------------------|
D|----0-0--0h3----------2h3-3-3-3-3-3-0-----------------------------------|
A|---------------2-2-2-------------------3-4------------------------------|
E|------------------------------------------------------------------------|

G|------------------------------------------------------------------------|
D|----0-0-3---------2h3--3-3-3-3-3-0------0-0-3--------2h3-3-3-3-3-3-0----|
A|-----------2-2-2--------------------3-4--------2-2-2-----------------3-4|
E|------------------------------------------------------------------------|
[ Tab from: http://www.guitartabs.cc/tabs/n/nirvana/stay_away_btab_ver_7.html ]
G|------------------------------------------------------------------------|
D|---0-0-3--------2h3-3-3-3-3-3-0-----------------------------------------|
A|---------2-2-2-------------------3-0------------------------------------|
E|------------------------------------------------------------------------|

Bridge                  
G|------------------------------------------------------------------------|
D|------0--0--0----0---2h3--0---------------------------------------------|
A|--------------3--------------4---3---0----------------------------------|
E|-------------------------------------------4--3-------------------------|

Bridge Continued
G|------------------------------------------------------------------------|
D|-------------------4--4----------4----------0-0-0----0---3-0-3/5b-5b-3-0|
A|----------4-------------------4------4---0---------3--------------------|
E|----2--2------2----------2-2--------------------------------------------|


Bridge Continued
G|------------------------------------------------------------------------|
D|--------------------4-4-4--4-4-4-4---0-0--0h3----------3-3--------------|
A|--------4------4\1-----------------0----------2-2--2-------3-3-0-3-4----|
E|---2--2-----2-----------------------------------------------------------|

Outro

G|------------------------------------------------------------------------|
D|-000000000000000000000000000000000000000000000000000000000000000000000--|
A|------------------------------------------------------------------------|
E|------------------------------------------------------------------------|
Gradually detuned the d string until the note sounds one octave below normal
pitch.