Nirvana - Stay Away Chords & Tabs

 

Stay Away Chords & Tabs

Nirvana Chords & Tabs

Version: 4 Type: Bass Tab 0 ratings
1 star 2 stars 3 stars 4 stars 5 stars
comments

Stay Away Bass Tab

Nirvana
Stay Away
Standard Tuning
Tabbed by Lindsay Walker
***
This song has only two different parts. The intro, chorus and verse are the same
riff and then ther is the bridge. You may want to play it in drop D to get better
acess to notes during the bridge but ive tabbed it in standard

Intro, Verse, chorus
|-------------------------|
|------2------3-3---------|
|-5-5---2-2--2----3-0-3-4-|
|-------------------------|
[ Tab from: http://www.guitartabs.cc/tabs/n/nirvana/stay_away_btab_ver_4.html ]
Bridge
|------------------------------------------------|
|-------------3-------------------2----------2---|
|-5--5--5-3-5---5-3-0-0-0-0----------------------|
|---------------------------3-3-3--3-3-3-3-3---3-|

|------------------------------------------------------|
|-------------3-5-6-7-8-9-9-------2----2-2-2-2-2-2-2-2-|
|-5--5--5-3-5------------------------------------------|
|---------------------------3-3-3--3-3-----------------|

the bridge comes in after the second chorus and again after the 3rd. Its an easy
song to learn, i learnt it just by listening to it once and the bonus is it sounds cool!
Comments