Nirvana - Stain Chords & Tabs

 

Stain Chords & Tabs

Nirvana Chords & Tabs

Version: 4 Type: Tab 0 ratings
1 star 2 stars 3 stars 4 stars 5 stars
comments

Stain Tab

   
Nirvana
Stain
From the album Incesticide

Drop D tuning

  Intro    Verse 

   D5  D#5   E5             D5 D#5            
e|--------|-----------------------|.|
b|--------|-----------------------|.| Don't repeat the first bar,
g|--------|-----------------------|.| only the second 
d|--0--1--|--2--2--x--2--2--0--1--|.|
a|--0--1--|--2--2--x--2--2--0--1--|.|
d|--0--1--|--2--2--x--2--2--0--1--|.|

Well he never leaves, and he never fucks,
and he never bleeds because he's got bad luck
well he never reads and he never roughs 
and he never sleeps cos he's got bad luck yeah
[ Tab from: http://www.guitartabs.cc/tabs/n/nirvana/stain_tab_ver_4.html ]
  
   Chorus
 
    A#5      A5       D5
e|-----------------------------------------|.|
b|-----------------------------------------|.|
g|--3--3--3--2--2--2--7--7--7--7--7--7--7--|.|
d|--3--3--3--2--2--2--7--7--7--7--7--7--7--|.|
a|--1--1--1--0--0--0--5--5--5--5--5--5--5--|.|
d|-----------------------------------------|.|
                I'm a stain______________


   Solo 
                               (bend gradually as you pick)
e|--------4--3---------|.  .|--5-5-5-5-5-5-5-5--|.|
b|-----5--------5------|.  .|--^-^-^-^-^-^-^-^--|.|
g|--3---------------5--|.x3.|-------------------|.|
d|---------------------|.  .|-------------------|.|
a|---------------------|.  .|-------------------|.|
d|---------------------|.  .|-------------------|.|

The other tab for this song was crap so I did my own (which by the way is perfect!)
That's all there is to the song. Mess about with it and have fun if you want!!!

Nirvana rule
Comments