Nirvana - Son Of A Gun Chords & Tabs

 

Son Of A Gun Chords & Tabs

Nirvana Chords & Tabs

Version: 2 Type: Tab 0 ratings
1 star 2 stars 3 stars 4 stars 5 stars
comments

Son Of A Gun Tab

"Son Of A Gun" By Nirvana
 
Intro
e----------------------
b----------------------
g--2-22------4444------
d--2-22-2-22-4444-2222-
a--0-00-2-22-2222-2222-
E-------0-00------0000-

Verse
e----------------------
b----------------------
g--2-22------4-44------
d--2-22-2222-4-44-2222-
a--0-00-2222-2-22-2222-
E-------0000------0000-
[ Tab from: http://www.guitartabs.cc/tabs/n/nirvana/son_of_a_gun_tab_ver_2.html ]
Chorse
e----------------------------------------------
b----------------------------------------------
g------------------22222-----------------44444-
d--2-2-2-2-2-2-2-2-22222-2-2-2-2-2-2-2-2-44444-
a--2-2-2-2-2-2-2-2-00000-2-2-2-2-2-2-2-2-22222-
E--0-0-0-0-0-0-0-0-------0-0-0-0-0-0-0-0-------

Bridge
e|----------------------------------------------
b|----------------------------------------------
g|------------------22222-----------------44444-
d|--2-2-2-2-2-2-2-2-22222-2-2-2-2-2-2-2-2-44444-
a|--2-2-2-2-2-2-2-2-00000-2-2-2-2-2-2-2-2-22222-
E|--0-0-0-0-0-0-0-0-------0-0-0-0-0-0-0-0-------

e----------------------------------------------|
b----------------------------------------------|
g------------------77777-----------------99999-|
d--2-2-2-2-2-2-2-2-77777-2-2-2-2-2-2-2-2-99999-| 
a--2-2-2-2-2-2-2-2-55555-2-2-2-2-2-2-2-2-77777-|
E--0-0-0-0-0-0-0-0-------0-0-0-0-0-0-0-0-------|
Comments