Nirvana - Something In The Way Chords & Tabs

 

Something In The Way Chords & Tabs

Nirvana Chords & Tabs

Version: 7 Type: Tab 3 ratings
1 star 2 stars 3 stars 4 stars 5 stars
comments

Something In The Way Tab

Something In The Way
Tune Down 1/2 a step and Drop D 
intro
e----------------------------------------------------------------------------
b----------------------------------------------------------------------------
g----------------------------------------------------------------------------
d----------------------------------------------------------------------------
a-------4-----4-----------0-----0----------4-----4-----------0----0----------
e--4--------4----4---0--------0---0---4--4-----4----4---0-------0---0--------
 verse
e----------------------------------------------------------------------------
b----------------------------------------------------------------------------
g----------------------------------------------------------------------------
d----------------------------------------------------------------------------
a-------------4-----------0----0----------------------------0------0---------
e--4--------4----4--0--------0----0---4--4-4----4-4-4--0--0------0---0-------

e----------------------------------------------------------------------------
b----------------------------------------------------------------------------
g----------------------------------------------------------------------------
d----------------------------------------------------------------------------
a----------4------4--------0-----0---------4-----4---------0-----0-----------
e--4----4-------4---4-0--0-----0---0--4--------4---4--0--------0---0---------

e----------------------------------------------------------------------------
b----------------------------------------------------------------------------
g----------------------------------------------------------------------------
d----------------------------------------------------------------------------
a------4-----4----------0-----0----------4-----4------------0-----0----------
e--4-------4---4--0---0-----0---0---4--------4---4--0---0-------0---0--------
[ Tab from: http://www.guitartabs.cc/tabs/n/nirvana/something_in_the_way_tab_ver_7.html ]
e----------------------------------------------------------------------------
b----------------------------------------------------------------0--0--0-----
g----------------------------------------------------------------0--0--0-----
d----------------------------------------------------------------0--0--0-----
a---------4-------4----------0-----0---------4-----4-------0-----0--0--0-----
e--4----4------4----4--0---0-----0--0--4---4-----4---4--0--------0-----0-----
 chorus
e----------------------------------------------------------------------------
b----------------0---------3--3--3-0-----------------------------------------
g----------------0---------2--2--2-0-----------------------------------------
d--4---4-4--4--------0--------0--0-------------------------------------------                  
a--4---4-4--4--------0--------0----------------------------------------------
e--4---4-4--4--------0--------0----------------------------------------------
 play that 7 times, then
e----------------------------------------------------------------------------
b------------------0--3------------------------------------------------------
g------------------0--2------------------------------------------------------
d--4---4-4--4------0---------------------------------------------------------
a--4---4-4--4------0---------------------------------------------------------
e--4---4-4--4------0---------------------------------------------------------
 2nd verse
e----------------------------------------------------------------------------
b----------------------------------------------------------------------------
g----------------------------------------------------------------------------
d----------------------------------------------------------------------------
a-------4------4--------0-----0---------4-------4----------0-----0-----------
e--4------4--4----0---0-----0-----4---4---4---4----0--0--0-----0-------------

e----------------------------------------------------------------------------
b----------------------------------------------------------------------------
g----------------------------------------------------------------------------
d----------------------------------------------------------------------------
a-------4-------------0----0---0---------------4---------0---------0---------
e--4------4---4--0--0---0----0----4---4-4----4----0----0---0----0------------

e----------------------------------------------------------------------------
b----------------------------------------------------------------------------
g----------------------------------------------------------------------------
d----------------------------------------------------------------------------
a-------4---------------0-----0--------4---------4--------0-----0------------
e--4------4---4---0---0-----0---0--4-----4----4----0---0------0---0----------

e------------------------------------------------------------------0--0------
b--------------------------------------------------------------0---0--0------
g--------------------------------------------------------------0---0--0------
d--------------------------------------------------------------0---0--0------
a---------4---------4-------0--------0-------4-------4---------0------0------
e--4----4----4----4----0------0--0------4------4---4----0---0---------0------ 
 then play the chorus 15 times and end with,  
e----------------------------------------------------------------------------
b---------------------------------(3)----------------------------------------
g----------------------------------------------------------------------------
d--4---4--4--4--4--4---------------------------------------------------------
a--4---4--4--4--4--4--0------------------------------------------------------
e--4---4--4--4--4--4--0------------------------------------------------------ 
Comments